Visiteur Anonyme
HAUTE-SAVOIE
Accueil
 
Partenaires
 
La Faune d'Auvergne-Rhône-Alpes
Consulter les observations
  Les observations
    - 
Les 2 derniers jours
    - 
Les 5 derniers jours
    - 
Les 15 derniers jours
     Synthèse migration
       - 
Le Hucel
       - 
Défilé de l'Ecluse
     Données et analyses
       - 
Pinson du Nord 21-22
       - 
Geai des chênes 21-22
       - 
Grive musicienne 21-22
       - 
Grive mauvis 21-22
       - 
Tarin des aulnes 2021
       - 
Milan royal 2021
       - 
Vulcain 2021
       - 
Pic mar 19-21
       - 
Castor d'Eurasie 17-21
       - 
Souris grise (M.m. domesticus) 17-21
       - 
Sonneur à ventre jaune 11-21
       - 
Grenouille agile 18-21
       - 
Grenouille rousse 2021
       - 
Lézard des souches 11-21
       - 
Grande Aigrette 21-22
       - 
Gypaète barbu 20-21
       - 
Vautour moine 2021
       - 
Vautour fauve 2021
 - 
Les galeries
Information
  Aide
    - 
Espèces à publication limitée
    - 
Explication des symboles
    - 
les FAQs
  Statistiques
La faune de Haute-Savoie
 - 
Plan Vigilance Avifaune 74
 - 
Carte dynamique de la faune de Haute-Savoie
 - 
Carte dynamique des oiseaux nicheurs de Haute-Savoie
Vie associative
Conservation
Suivis et Expertises
Sensibilisation
Groupes faunistiques
Utilisation du site
Offres d'emploi
Les liens

La LPO est le reprsentant
pour la FRANCE de


Synthèse migration 2021 : Défilé de l'Ecluse - site suivi migration (Chevrier)

Date : du dimanche 18 juillet 2021 au samedi 23 octobre 2021

Nombre de jour de suivi : 7
Nombre d'heures de suivi : 15h15

Nombre d'oiseaux : 322788
Nombre de rapaces : 51498



 Cigognes et rapaces
 
Total 
  Oie cendrée (Anser anser)52 
  Tadorne casarca (Tadorna ferruginea)3 
  Canard pilet (Anas acuta)18 
  Harle bièvre (Mergus merganser)7 
  Grand Cormoran (Phalacrocorax carbo)12624 
  Héron garde-boeufs (Bubulcus ibis)4 
  Grande Aigrette (Casmerodius albus)76 
  Héron cendré (Ardea cinerea)553 
  Héron pourpré (Ardea purpurea)2 
  Cigogne noire (Ciconia nigra)114 
  Cigogne blanche (Ciconia ciconia)4368 
  Spatule blanche (Platalea leucorodia)3 
 Afficher phénologie  Bondrée apivore (Pernis apivorus)4318 
 Afficher phénologie  Élanion blanc (Elanus caeruleus)3 
 Afficher phénologie  Milan noir (Milvus migrans)16418 
 Afficher phénologie  Milan royal (Milvus milvus)14287 
 Afficher phénologie  Circaète Jean-le-Blanc (Circaetus gallicus)5 
 Afficher phénologie  Busard indéterminé (Circus sp.)2 
 Afficher phénologie  Busard des roseaux (Circus aeruginosus)541 
 Afficher phénologie  Busard Saint-Martin (Circus cyaneus)11 
 Afficher phénologie  Busard pâle (Circus macrourus)3 
 Afficher phénologie  Busard cendré (Circus pygargus)4 
 Afficher phénologie  Épervier d'Europe (Accipiter nisus)885 
 Afficher phénologie  Buse variable (Buteo buteo)14130 
 Afficher phénologie  Balbuzard pêcheur (Pandion haliaetus)97 
 Afficher phénologie  Faucon crécerelle (Falco tinnunculus)745 
 Afficher phénologie  Faucon émerillon (Falco columbarius)17 
 Afficher phénologie  Faucon hobereau (Falco subbuteo)31 
 Afficher phénologie  Faucon pèlerin (Falco peregrinus)1 

23 octobre
 Durée : 11h30 

22 octobre
 Durée : 00h00 

21 octobre
 Durée : 00h00 

20 octobre
 Durée : 00h00 

19 octobre
 Durée : 00h00 

18 octobre
 Durée : 00h00 

17 octobre
 Durée : 00h00 

16 octobre
 Durée : 00h00 

15 octobre
 Durée : 00h00 

14 octobre
 Durée : 00h00 

13 octobre
 Durée : 00h00 

12 octobre
 Durée : 00h00 

11 octobre
 Durée : 00h00 

10 octobre
 Durée : 00h45 

9 octobre
 Durée : 00h00 

8 octobre
 Durée : 00h00 

7 octobre
 Durée : 00h00 

6 octobre
 Durée : 00h00 

5 octobre
 Durée : 00h00 

4 octobre
 Durée : 00h00 

3 octobre
 Durée : 00h00 

2 octobre
 Durée : 00h00 

1 octobre
 Durée : 00h00 

30 septembre
 Durée : 00h00 

29 septembre
 Durée : 00h00 

28 septembre
 Durée : 00h00 

27 septembre
 Durée : 00h00 

26 septembre
 Durée : 00h15 

25 septembre
 Durée : 00h00 

24 septembre
 Durée : 00h00 

23 septembre
 Durée : 00h00 

22 septembre
 Durée : 00h00 

21 septembre
 Durée : 00h00 

20 septembre
 Durée : 00h00 

19 septembre
 Durée : 01h00 

18 septembre
 Durée : 00h00 

17 septembre
 Durée : 00h00 

16 septembre
 Durée : 00h00 

15 septembre
 Durée : 00h00 

14 septembre
 Durée : 00h00 

13 septembre
 Durée : 00h00 

12 septembre
 Durée : 00h00 

11 septembre
 Durée : 00h00 

10 septembre
 Durée : 00h00 

9 septembre
 Durée : 00h00 

8 septembre
 Durée : 00h00 

7 septembre
 Durée : 00h00 

6 septembre
 Durée : 00h00 

5 septembre
 Durée : 00h30 

4 septembre
 Durée : 00h00 

3 septembre
 Durée : 00h00 

2 septembre
 Durée : 00h00 

1 septembre
 Durée : 00h00 

31 août
 Durée : 00h00 

30 août
 Durée : 00h00 

29 août
 Durée : 00h00 

28 août
 Durée : 00h00 

27 août
 Durée : 00h00 

26 août
 Durée : 00h00 

25 août
 Durée : 00h00 

24 août
 Durée : 00h00 

23 août
 Durée : 00h00 

22 août
 Durée : 00h00 

21 août
 Durée : 00h00 

20 août
 Durée : 00h00 

19 août
 Durée : 00h00 

18 août
 Durée : 00h00 

17 août
 Durée : 00h00 

16 août
 Durée : 00h00 

15 août
 Durée : 00h00 

14 août
 Durée : 00h00 

13 août
 Durée : 00h00 

12 août
 Durée : 00h00 

11 août
 Durée : 00h00 

10 août
 Durée : 00h00 

9 août
 Durée : 00h00 

8 août
 Durée : 00h15 

7 août
 Durée : 00h00 

6 août
 Durée : 00h00 

5 août
 Durée : 00h00 

4 août
 Durée : 00h00 

3 août
 Durée : 00h00 

2 août
 Durée : 00h00 

1 août
 Durée : 01h00 

31 juillet
 Durée : 00h00 

30 juillet
 Durée : 00h00 

29 juillet
 Durée : 00h00 

28 juillet
 Durée : 00h00 

27 juillet
 Durée : 00h00 

26 juillet
 Durée : 00h00 

25 juillet
 Durée : 00h00 

24 juillet
 Durée : 00h00 

23 juillet
 Durée : 00h00 

22 juillet
 Durée : 00h00 

21 juillet
 Durée : 00h00 

20 juillet
 Durée : 00h00 

19 juillet
 Durée : 00h00 

18 juillet
 Durée : 00h00 
- - - - - - - - - - - - - 3 18 - - - 13 - - - - - - - - - - - 11 - - - - - - - - - - - - - 7 - - - - - - - - - - - - - - - - - - - - - - - - - - - - - - - - - - - - - - - - - - - - - - - - - - - - -
- - - - - - - - - - - - - - - - - - - - - - - - - - - - - - - - - - - - - - - - - - - - - - - - - - - - - - - - - - - - - - - - 3 - - - - - - - - - - - - - - - - - - - - - - - - - - - - - - - - -
- - - 6 - - - 2 - - 10 - - - - - - - - - - - - - - - - - - - - - - - - - - - - - - - - - - - - - - - - - - - - - - - - - - - - - - - - - - - - - - - - - - - - - - - - - - - - - - - - - - - - - - -
- - - - - 3 - - - - - - - - 2 1 1 - - - - - - - - - - - - - - - - - - - - - - - - - - - - - - - - - - - - - - - - - - - - - - - - - - - - - - - - - - - - - - - - - - - - - - - - - - - - - - - - -
475 7 3 76 143 106 305 137 324 678 82 118 883 820 273 334 819 80 10 15 90 110 578 1530 345 313 61 - 158 998 144 280 313 20 1 605 142 - - 90 22 24 8 1 - 66 140 42 - 3 10 201 142 25 17 5 7 42 78 3 39 21 - 38 16 - 5 6 8 47 10 51 - 19 17 16 - - 2 1 - 4 - - - 3 6 7 - - - - - - 4 - 2 -
- - - - - - - - - - - - - - - - - - - - - - - - - - - - - - - - - - - - - - - - - - - - - - - - - - - - - - - - - - - - - - - - - - - - - - 2 2 - - - - - - - - - - - - - - - - - - - - - - - - - -
- - - - - - - - 1 - - - 5 19 - 1 - 1 - - - 3 4 2 4 5 - - - - 4 2 2 - 1 2 3 - - 6 - - - - - - - - 1 1 - 1 - - - - - - - 4 - - - - - - - - - - - - - 1 - - - 3 - - - - - - - - - - - - - - - - - - - -
2 - 2 - - - 2 - - 1 1 2 - - 2 11 2 14 - - - 7 32 10 24 13 - - - - - 22 17 - 2 4 19 19 9 8 15 - 5 - 2 5 14 2 4 4 - 68 80 1 - - - - - 52 - 3 - - - 4 - - - - - 28 - 2 - 6 - 31 - - - 1 - - - - - - - - 1 - - - - - - -
- - - - - - - - - - - - - - - - - - - - - - - - - - - - - - - - - - - - - 1 - - - - - - - - - - - - - - - - - - - - - - - - - - - - - - - - - - - - - - - - - - - - - - - - - - - - 1 - - - - - - -
- - - - - 1 - - - - - - - - - - - 1 - - - - - 1 2 5 - - - - 1 7 14 - - 10 3 - - - 1 1 - - - - - 1 6 4 - 4 6 2 - - 1 4 - - 6 3 - 1 - - - - - - - 1 1 17 - 2 2 - - - - - 4 - 2 - - - - - - - - - - - - -
23 2 - - - - - - - - - - 2 13 - - - 13 - - - - 50 29 10 93 21 - 5 4 18 55 64 - - 199 119 29 - - 187 138 - - - 88 161 177 215 309 1 230 387 - - - 25 191 78 45 116 246 53 41 45 260 90 24 - - 22 - 490 - - - - - - - - - - - - - - - - - - - - - - - - -
- - - - - - - - - - - - - - - - - - - - - - - - - - - - - - - - - - - - 3 - - - - - - - - - - - - - - - - - - - - - - - - - - - - - - - - - - - - - - - - - - - - - - - - - - - - - - - - - - - - -
- - - - - - - - - - - - - - - - - - - - - - 1 - - - - - - - 1 1 2 - - 6 2 - 2 - - 4 2 - - 1 25 23 41 195 142 530 1646 256 2 4 61 816 236 62 174 43 4 - 9 19 1 2 2 1 - - - - - - - - - - - - - - 1 - - - - - - - 1 - - - - -
- - - - - - - - - - - - - - - - - - - - - - - 1 - - - - - - - - - - - - - - - - - - - - 1 - - - - - - - - - - - - - - - - - - - - - - - - - - - - - 1 - - - - - - - - - - - - - - - - - - - - - - -
- - - - - - - 1 - 1 - - - - 1 1 3 1 - - - - - 1 - 8 - 2 3 - 1 3 4 - 2 5 7 1 1 4 1 7 6 4 - - 5 11 9 24 8 32 72 2 1 7 28 40 21 3 36 41 25 44 78 79 46 230 3 43 163 437 508 818 415 719 7283 100 1311 567 - 164 1315 8 924 94 86 69 71 99 83 23 37 22 74 3 11 58
350 65 39 83 96 115 164 299 262 617 352 376 720 1230 529 860 724 235 113 131 44 124 358 1463 340 1193 152 19 279 321 404 760 600 - 14 351 117 8 24 24 11 41 12 - 2 13 21 22 22 40 1 30 7 - 1 - 5 - 3 - - 2 - 2 4 1 3 9 - - 28 16 16 8 3 1 3 - - - - - - - 2 - - - - - - - 1 1 - - - 1
- - - - - - - - - - - - - - - - - - - - - - - - - - - - - - - - - - - - 1 - - - - - - - - - - - - - - - - - - - - - - 2 - - - - - - - 2 - - - - - - - - - - - - - - - - - - - - - - - - - - - - - -
- - - - - - - - - - - - 1 - - - - - - - - - - - - - - - - - - - - - - - - - - - - - - - - - - - - - 1 - - - - - - - - - - - - - - - - - - - - - - - - - - - - - - - - - - - - - - - - - - - - - - -
2 - - - 1 4 1 - - - 1 2 1 2 - 1 3 4 5 - 1 4 - - 5 7 4 5 6 1 1 14 31 2 - 27 56 10 17 20 5 14 28 11 20 5 21 9 17 31 21 22 48 9 1 - 4 6 8 5 6 1 2 3 - 2 - - - - - 2 1 - - - - - 1 - - - - - - - - - - - - - - - - - - -
- 2 - - - - - - - - - 2 - 2 4 - - - 1 - - - - - - - - - - - - - - - - - - - - - - - - - - - - - - - - - - - - - - - - - - - - - - - - - - - - - - - - - - - - - - - - - - - - - - - - - - - - - - -
- - - - - - - - - - - - - - - - - 1 - - - - - - - - - - - - - 1 - - - - 1 - - - - - - - - - - - - - - - - - - - - - - - - - - - - - - - - - - - - - - - - - - - - - - - - - - - - - - - - - - - - -
- - - - - - - - - - - - - - - - - - - - - - - - - - - - - - - - - - - - - - - - - - - - 1 - - - - 1 - - 1 - - - - - - - - - 1 - - - - - - - - - - - - - - - - - - - - - - - - - - - - - - - - - - -
47 13 1 7 16 14 10 23 10 34 31 52 36 64 25 34 29 19 1 1 2 5 - 16 7 34 4 1 9 14 5 59 43 - 5 63 70 1 1 - 4 5 4 1 - 2 3 4 3 15 2 5 10 - - 1 6 3 2 - 4 1 1 - 1 1 1 - - - - - - - - - - - - - - - - - - - - - - - - - - - - - - -
1213 20 7 19 65 107 74 342 145 1109 678 812 985 1928 493 835 859 141 43 1 - 22 89 810 117 583 46 14 58 127 95 544 911 - 29 560 121 3 12 - 2 19 - - - 1 7 14 5 10 4 33 8 1 - - 1 3 - - 5 - - - - - - - - - - - - - - - - - - - - - - - - - - - - - - - - - - - - -
- - - - - - 1 - - - - - - 2 - - 1 2 - - - - 1 - 3 - 1 - 1 2 - 1 9 - - 8 7 6 6 4 - 4 1 2 3 - - 2 2 4 2 3 5 2 - 1 1 1 1 3 1 1 - - - 1 - - - - 1 - - - - - - - - - - - - - - - - - - - - - 1 - - - - -
2 2 3 - 2 1 1 2 3 8 4 5 5 15 5 17 26 13 6 - 3 13 9 28 95 60 16 - 3 14 6 49 172 - 1 37 72 22 1 8 1 2 - 1 2 - 2 1 - - - - - - - - 1 - 2 1 3 - - - - - - - - - - - - - - - - - - - - - - - - - - - - - - - - - - - - -
2 1 - - - - - 3 1 3 3 1 - - - 1 1 1 - - - - - - - - - - - - - - - - - - - - - - - - - - - - - - - - - - - - - - - - - - - - - - - - - - - - - - - - - - - - - - - - - - - - - - - - - - - - - - - -
- - - - - - - - - - - - - - - 1 - - - - - - 1 - 1 1 - 1 - - - 3 5 - - 1 6 2 3 - - 1 - 1 1 - - - - - - - - - - - - - - - 1 1 - - - - - 1 - - - - - - - - - - - - - - - - - - - - - - - - - - - - - -
- - - - - - - - - 1 - - - - - - - - - - - - - - - - - - - - - - - - - - - - - - - - - - - - - - - - - - - - - - - - - - - - - - - - - - - - - - - - - - - - - - - - - - - - - - - - - - - - - - - -

 Autres espèces
 
Total 
  Aucune espèce (No aves)- 
  Canard indéterminé (Anatidae sp.)1 
  Ibis sacré (Threskiornis aethiopicus)1 
  Rapace indéterminé (Falconiformes sp.)107 
  Milan indéterminé (Milvus sp.)3 
  Busard pâle / cendré (Circus macrourus / pygargus)3 
  Autour / Epervier (Accipiter gentilis / nisus)1 
  Buse indéterminée (Buteo sp.)1 
  Faucon indéterminé (Falco sp.)4 
  Grue cendrée (Grus grus)28 
  petit limicole indéterminé (Charadriiformes sp. (pusilli))7 
  Grand Gravelot (Charadrius hiaticula)1 
  Vanneau huppé (Vanellus vanellus)7 
  Bécasseau variable (Calidris alpina)3 
  Bécassine des marais (Gallinago gallinago)1 
  Courlis indéterminé (Numenius sp.)1 
  Courlis corlieu (Numenius phaeopus)18 
  Courlis cendré (Numenius arquata)15 
  Chevalier indéterminé (Tringa) (Tringa sp.)1 
  Chevalier aboyeur (Tringa nebularia)3 
  Labbe parasite (Stercorarius parasiticus)1 
  Goéland indéterminé (Larus sp. (magna))3 
  Mouette mélanocéphale (Larus melanocephalus)2 
  Mouette rieuse (Chroicocephalus ridibundus)436 
  Mouette indéterminée (Larus sp.(pusilli))67 
  Goéland brun (Larus fuscus)1 
  Goéland leucophée (Larus michahellis)98 
  Sterne caspienne (Hydroprogne caspia)2 
  Pigeon indéterminé (Columba sp.)46471 
  Pigeon colombin (Columba oenas)2120 
  Pigeon ramier (Columba palumbus)74242 
  Martinet noir (Apus apus)22867 
  Martinet à ventre blanc (Apus melba)18 
  Guêpier d'Europe (Merops apiaster)746 
  Alouette indéterminée (Alaudidae sp.)174 
  Alouette lulu (Lullula arborea)380 
  Alouette des champs (Alauda arvensis)689 
  Hirondelle indéterminée (Hirundinidae sp.)18450 
  Hirondelle de rivage (Riparia riparia)51 
  Hirondelle de rochers (Ptyonoprogne rupestris)63 
  Hirondelle rustique (Hirundo rustica)11698 
  Hirondelle de fenêtre (Delichon urbicum)5042 
  Pipit indéterminé (Anthus sp.)10 
  Pipit rousseline (Anthus campestris)1 
  Pipit des arbres (Anthus trivialis)137 
  Pipit farlouse (Anthus pratensis)407 
  Bergeronnette printanière (Motacilla flava)340 
  Bergeronnette des ruisseaux (Motacilla cinerea)105 
  Bergeronnette grise (Motacilla alba)1692 
  Accenteur mouchet (Prunella modularis)33 
  Merle / Grive indéterminé (Turdus sp.)603 
  Traquet motteux (Oenanthe oenanthe)1 
  Merle noir (Turdus merula)20 
  Grive litorne (Turdus pilaris)8 
  Grive musicienne (Turdus philomelos)5025 
  Grive mauvis (Turdus iliacus)19 
  Grive draine (Turdus viscivorus)159 
  Mésange indéterminée (Paridae sp.)27 
  Mésange noire (Periparus ater)4 
  Mésange bleue (Cyanistes caeruleus)342 
  Mésange charbonnière (Parus major)147 
  Rémiz penduline (Remiz pendulinus)12 
  Geai des chênes (Garrulus glandarius)1889 
  Cassenoix moucheté (Nucifraga caryocatactes)2 
  Choucas des tours (Corvus monedula)317 
  Corbeau freux (Corvus frugilegus)299 
  Étourneau sansonnet (Sturnus vulgaris)39357 
  Passereau indéterminé (Passeriformes sp.)8505 
  Fringille indéterminé (Fringillidae sp.)978 
  Pinson des arbres (Fringilla coelebs)7325 
  Pinson du Nord (Fringilla montifringilla)243 
  Serin cini (Serinus serinus)184 
  Verdier d'Europe (Carduelis chloris)110 
  Chardonneret élégant (Carduelis carduelis)267 
  Tarin des aulnes (Carduelis spinus)346 
  Linotte mélodieuse (Carduelis cannabina)311 
  Bec-croisé des sapins (Loxia curvirostra)49 
  Bouvreuil pivoine (Pyrrhula pyrrhula)2 
  Grosbec casse-noyaux (Coccothraustes coccothraustes)336 
  Bruant jaune (Emberiza citrinella)7 
  Bruant des roseaux (Emberiza schoeniclus)18 
  Bruant proyer (Emberiza calandra)2 

23 octobre
 Durée : 11h30 

22 octobre
 Durée : 00h00 

21 octobre
 Durée : 00h00 

20 octobre
 Durée : 00h00 

19 octobre
 Durée : 00h00 

18 octobre
 Durée : 00h00 

17 octobre
 Durée : 00h00 

16 octobre
 Durée : 00h00 

15 octobre
 Durée : 00h00 

14 octobre
 Durée : 00h00 

13 octobre
 Durée : 00h00 

12 octobre
 Durée : 00h00 

11 octobre
 Durée : 00h00 

10 octobre
 Durée : 00h45 

9 octobre
 Durée : 00h00 

8 octobre
 Durée : 00h00 

7 octobre
 Durée : 00h00 

6 octobre
 Durée : 00h00 

5 octobre
 Durée : 00h00 

4 octobre
 Durée : 00h00 

3 octobre
 Durée : 00h00 

2 octobre
 Durée : 00h00 

1 octobre
 Durée : 00h00 

30 septembre
 Durée : 00h00 

29 septembre
 Durée : 00h00 

28 septembre
 Durée : 00h00 

27 septembre
 Durée : 00h00 

26 septembre
 Durée : 00h15 

25 septembre
 Durée : 00h00 

24 septembre
 Durée : 00h00 

23 septembre
 Durée : 00h00 

22 septembre
 Durée : 00h00 

21 septembre
 Durée : 00h00 

20 septembre
 Durée : 00h00 

19 septembre
 Durée : 01h00 

18 septembre
 Durée : 00h00 

17 septembre
 Durée : 00h00 

16 septembre
 Durée : 00h00 

15 septembre
 Durée : 00h00 

14 septembre
 Durée : 00h00 

13 septembre
 Durée : 00h00 

12 septembre
 Durée : 00h00 

11 septembre
 Durée : 00h00 

10 septembre
 Durée : 00h00 

9 septembre
 Durée : 00h00 

8 septembre
 Durée : 00h00 

7 septembre
 Durée : 00h00 

6 septembre
 Durée : 00h00 

5 septembre
 Durée : 00h30 

4 septembre
 Durée : 00h00 

3 septembre
 Durée : 00h00 

2 septembre
 Durée : 00h00 

1 septembre
 Durée : 00h00 

31 août
 Durée : 00h00 

30 août
 Durée : 00h00 

29 août
 Durée : 00h00 

28 août
 Durée : 00h00 

27 août
 Durée : 00h00 

26 août
 Durée : 00h00 

25 août
 Durée : 00h00 

24 août
 Durée : 00h00 

23 août
 Durée : 00h00 

22 août
 Durée : 00h00 

21 août
 Durée : 00h00 

20 août
 Durée : 00h00 

19 août
 Durée : 00h00 

18 août
 Durée : 00h00 

17 août
 Durée : 00h00 

16 août
 Durée : 00h00 

15 août
 Durée : 00h00 

14 août
 Durée : 00h00 

13 août
 Durée : 00h00 

12 août
 Durée : 00h00 

11 août
 Durée : 00h00 

10 août
 Durée : 00h00 

9 août
 Durée : 00h00 

8 août
 Durée : 00h15 

7 août
 Durée : 00h00 

6 août
 Durée : 00h00 

5 août
 Durée : 00h00 

4 août
 Durée : 00h00 

3 août
 Durée : 00h00 

2 août
 Durée : 00h00 

1 août
 Durée : 01h00 

31 juillet
 Durée : 00h00 

30 juillet
 Durée : 00h00 

29 juillet
 Durée : 00h00 

28 juillet
 Durée : 00h00 

27 juillet
 Durée : 00h00 

26 juillet
 Durée : 00h00 

25 juillet
 Durée : 00h00 

24 juillet
 Durée : 00h00 

23 juillet
 Durée : 00h00 

22 juillet
 Durée : 00h00 

21 juillet
 Durée : 00h00 

20 juillet
 Durée : 00h00 

19 juillet
 Durée : 00h00 

18 juillet
 Durée : 00h00 
--------------------------------------------------------------------------------------------------
-------1------------------------------------------------------------------------------------------
-------------1------------------------------------------------------------------------------------
11------2-7-11-6118--1---7----6--1---43----26---1--325111--121-3-------------------------------------
----------------------------------------------1----------1---1------------------------------------
----------------1-----------------------------------11--------------------------------------------
-------------------------------------------------1------------------------------------------------
------------1-------------------------------------------------------------------------------------
-----1-----1--1-1---------------------------------------------------------------------------------
----26--------2------------------------------------------------------------------------------------
-----------------------7--------------------------------------------------------------------------
-----------------------1--------------------------------------------------------------------------
------------------------6------1------------------------------------------------------------------
--------------------------------3-----------------------------------------------------------------
-----------------------------------1--------------------------------------------------------------
-----------------------1--------------------------------------------------------------------------
----------------------------------------------------------------2-----14-----2---------------------
-------------1----------------147-------------------1------------1--------------------------------
---------------------------------------1----------------------------------------------------------
-------------------------------------------------1--2---------------------------------------------
----------------------------------------------------------------------------1---------------------
-----3--------------------------------------------------------------------------------------------
---------------------------------------------------------------------------2----------------------
-----------------------11-----------1152--------------------------------19-37189476---16-14----39-8--23------
--------------------------------------------------------8---------------59-------------------------
-------------------------------1------------------------------------------------------------------
-3-64---1----46-----------4----2---1-11--------424------1-10------------114814-3-----6---2----5-----
------------------------------------------------2-------------------------------------------------
234----17-63-25-1402173129920456876626287100--10610--15-48-15--10----------------------------------------------------------------
4--147962104523193012717577110237-31059219724093021612366176-1286109-543-4--2-3-21721-------------15---------------------------------
1078169-2060639040017089875618682924247470142404918769498212388-1169115216960829422-10422144379-17-------------------------------------------------------------
--------------------------------1---1------10--------3---3----3-74--3-11630211008013636104649-663290-708946-3707135941162229084325591382925258--
--------------------------------------------1----------2------2-211--------------------------------
----------------------------------------20-59--77109189290-1-------1---------------------------------------
---------3----168--3--------------------------------------------------------------------------------
-38141624-55219140-595583432-----------------1-------------------------------------------------------------
-7-15974125533613-1632212764-7---1----------------------------------------------------------------------------
------33-------1328119--6381516641521425202542034195106593-915206269462632503504452106021671390111176-1255659--9------31-------------------------------------
--------------------------------------21-------------2---------------------4----------------7413----
------------------------4------------------1940-----------------------------------------------------
----1---924---4325537342-741547226331887186255504015228033935820574113970-45532411472156262110450153076048158732034-17291202-22542827-62-----------------------------
--------------725257884-10516846935669082530-1156365-39-243704245627----675-1-42----2640619-14100-4-----9-------70---------------------
---------------3-----7----------------------------------------------------------------------------
----------------------------------------1---------------------------------------------------------
---------------1-21--171-1---832267-616142---4-652--2498--5-516-------------------------------------
-65399328719713729-608511381-123-24--1---------------------------------------------------------------------
------1----1----4-3-14-4205--43149102447294-53-163--126-2120562-9213-623-1----------------------------------
-271---1-32---212531--1074564-45221--722--2-21------------------------------------------------------
26415316213522554934201670471597346292524-151297967371-15368315-48-------------------------------------------------------------
-1--2------41-23-31--33-4-1-1-31------------------------------------------------------------------
9---2-14-6--184952588---------------------------------------------------------------------------------
------------------------1-------------------------------------------------------------------------
---------------236----9---------------------------------------------------------------------------
3---5---------------------------------------------------------------------------------------------
---6123192-742142510981308441492614141218110802---1228------------------------------------------------------------------
--324---11---521----------------------------------------------------------------------------------
-2--1113382-2-931172-4-3699--4-----6------------------------------------------------------------------
----4---53-15--------------------------------------------------------------------------------------
--------1---------2-----1-------------------------------------------------------------------------
-2819-5632538452416101543-3----34-28---63-----810------------------------------------------------------------
-75336-135237-19-2192----------99------42------------------------------------------------------------
--71----1-12--------------------------------------------------------------------------------------
--2-3-7-111133724585621395134-107257343082692017720161293918710416314336443-12692338---------------------------------------------------
--------2-----------------------------------------------------------------------------------------
-35315227-258661029--7----------------------------------------------------------------------------------
6-7-111471143822147------------------------9-----23-------------------------------------------------------
3127865571249449534814314513933326924534551212576795--28522186516--1742362714--914-------------------------------------------------------------
-6941504383412833122022693651142201771902206682344186228-844114245525----106--4-81322--6-------------------------------------------------------
-1171251023647119254-115-5118418242--566-2715--6----12-4--------------------------------------------------------------
-59772417327591391161543023821651565966121141161177527-43373283616566--162245101022-29-------------------------------------------------------------
-45158233---152-132-----------------------------------------------------------------------------------
-22242331118943-2--52421-11733-6---331---22---------1---------------------------------------------------
-1935144------2--195126--3----------------------------------------------------------------------------
-51113912516241710116122910-1--612-11-----9--2----------------------------------------------------------------
-7010551943131728104-172543626--4--4---11--12-1--------------------------------------------------------------
-84791681-3166-17---9-12--11123---1--1752----------------------------------------------------------------
---------------------------------14---35------------------------------------------------------------
-2------------------------------------------------------------------------------------------------
-1732527--4--346--2115292844-1829---9----------18-------------------------------------------------------------
-2---3---------------1--1-------------------------------------------------------------------------
--23---112-21-2-2-2-------------------------------------------------------------------------------
-1-1----------------------------------------------------------------------------------------------

LPO Haute-Savoie
46 route de la Fruitière 74650 Chavanod
Tél. 04 50 27 17 74 haute-savoie@lpo.fr
Permanence les lundis, mardis, jeudis et vendredis de 9h à 12h
Plan
Visionature
VisioNature est un outil développé avec la collaboration du réseau LPO. Grâce aux technologies Internet, débutants, amateurs et professionnels naturalistes, peuvent partager en temps réel leur découverte et ainsi améliorer la connaissance et la protection de la faune

Biolovision Sàrl (Switzerland), 2003-2021