Visiteur Anonyme
HAUTE-SAVOIE
Accueil
 
Partenaires
 
La Faune d'Auvergne-Rhône-Alpes
Consulter les observations
  Les observations
    - 
Les 2 derniers jours
    - 
Les 5 derniers jours
    - 
Les 15 derniers jours
     Synthèse migration
       - 
Le Hucel
       - 
Défilé de l'Ecluse
     Données et analyses
       - 
Pouillot fitis 2021
       - 
Grive mauvis 20-21
       - 
Hirondelle rustique 2021
       - 
Hirondelle de fenêtre 2021
       - 
Bouscarle de Cetti 2021
       - 
Milan royal 2021
       - 
Pic mar 19-21
       - 
Castor d'Eurasie 17-21
       - 
Souris grise (M.m. domesticus) 17-21
       - 
Citron 2021
       - 
Sonneur à ventre jaune 11-21
       - 
Grenouille agile 18-21
       - 
Grenouille rousse 2021
       - 
Lézard des souches 11-21
       - 
Gypaète barbu 20-21
       - 
Vautour moine 2021
       - 
Vautour fauve 2021
 - 
Les galeries
Information
  Aide
    - 
Espèces à publication limitée
    - 
Explication des symboles
    - 
les FAQs
  Statistiques
La faune de Haute-Savoie
 - 
Plan Vigilance Avifaune 74
 - 
Carte dynamique de la faune de Haute-Savoie
 - 
Carte dynamique des oiseaux nicheurs de Haute-Savoie
Vie associative
Conservation
Suivis et Expertises
Sensibilisation
Groupes faunistiques
Utilisation du site
Offres d'emploi
Les liens

La LPO est le reprsentant
pour la FRANCE de


Synthèse migration 2019 : Défilé de l'Ecluse - site suivi migration (Chevrier)

Date : du lundi 15 juillet 2019 au mardi 10 décembre 2019

Nombre de jour de suivi : 25
Nombre d'heures de suivi : 23h30

Nombre d'oiseaux : 314766
Nombre de rapaces : 38367



 Cigognes et rapaces
 
Total 
  Oie cendrée (Anser anser)175 
  Canard siffleur (Anas penelope)5 
  Canard pilet (Anas acuta)59 
  Canard souchet (Anas clypeata)47 
  Sarcelle d'été (Anas querquedula)15 
  Harle huppé (Mergus serrator)1 
  Harle bièvre (Mergus merganser)56 
  Grand Cormoran (Phalacrocorax carbo)19908 
  Héron garde-boeufs (Bubulcus ibis)1 
  Aigrette garzette (Egretta garzetta)1 
  Grande Aigrette (Casmerodius albus)467 
  Héron cendré (Ardea cinerea)1574 
  Héron pourpré (Ardea purpurea)1 
  Cigogne noire (Ciconia nigra)115 
  Cigogne blanche (Ciconia ciconia)3353 
 Afficher phénologie  Bondrée apivore (Pernis apivorus)1677 
 Afficher phénologie  Milan noir (Milvus migrans)8481 
 Afficher phénologie  Milan royal (Milvus milvus)12610 
 Afficher phénologie  Vautour fauve (Gyps fulvus)7 
 Afficher phénologie  Circaète Jean-le-Blanc (Circaetus gallicus)6 
 Afficher phénologie  Busard indéterminé (Circus sp.)3 
 Afficher phénologie  Busard des roseaux (Circus aeruginosus)466 
 Afficher phénologie  Busard Saint-Martin (Circus cyaneus)47 
 Afficher phénologie  Busard pâle (Circus macrourus)1 
 Afficher phénologie  Busard cendré (Circus pygargus)5 
 Afficher phénologie  Autour des palombes (Accipiter gentilis)3 
 Afficher phénologie  Épervier d'Europe (Accipiter nisus)1084 
 Afficher phénologie  Buse variable (Buteo buteo)13250 
 Afficher phénologie  Aigle royal (Aquila chrysaetos)1 
 Afficher phénologie  Aigle botté (Aquila pennata)1 
 Afficher phénologie  Balbuzard pêcheur (Pandion haliaetus)90 
 Afficher phénologie  Faucon crécerelle (Falco tinnunculus)585 
 Afficher phénologie  Faucon émerillon (Falco columbarius)33 
 Afficher phénologie  Faucon hobereau (Falco subbuteo)9 
 Afficher phénologie  Faucon pèlerin (Falco peregrinus)8 

10 décembre
 Durée : 01h00 

9 décembre
 Durée : 00h00 

8 décembre
 Durée : 00h00 

7 décembre
 Durée : 00h00 

6 décembre
 Durée : 00h30 

5 décembre
 Durée : 00h00 

4 décembre
 Durée : 00h30 

3 décembre
 Durée : 00h30 

2 décembre
 Durée : 00h30 

1 décembre
 Durée : 00h00 

30 novembre
 Durée : 01h00 

29 novembre
 Durée : 00h00 

28 novembre
 Durée : 00h00 

27 novembre
 Durée : 00h00 

26 novembre
 Durée : 00h00 

25 novembre
 Durée : 00h00 

24 novembre
 Durée : 00h00 

23 novembre
 Durée : 00h40 

22 novembre
 Durée : 00h00 

21 novembre
 Durée : 00h00 

20 novembre
 Durée : 01h00 

19 novembre
 Durée : 01h00 

18 novembre
 Durée : 00h00 

17 novembre
 Durée : 00h00 

16 novembre
 Durée : 00h00 

15 novembre
 Durée : 00h00 

14 novembre
 Durée : 00h00 

13 novembre
 Durée : 00h00 

12 novembre
 Durée : 00h00 

11 novembre
 Durée : 00h00 

10 novembre
 Durée : 00h00 

9 novembre
 Durée : 00h00 

8 novembre
 Durée : 00h00 

7 novembre
 Durée : 00h00 

6 novembre
 Durée : 00h00 

5 novembre
 Durée : 00h00 

4 novembre
 Durée : 00h00 

3 novembre
 Durée : 00h00 

2 novembre
 Durée : 00h00 

1 novembre
 Durée : 00h00 

31 octobre
 Durée : 00h00 

30 octobre
 Durée : 00h00 

29 octobre
 Durée : 00h00 

28 octobre
 Durée : 00h00 

27 octobre
 Durée : 00h00 

26 octobre
 Durée : 00h00 

25 octobre
 Durée : 00h00 

24 octobre
 Durée : 00h00 

23 octobre
 Durée : 00h00 

22 octobre
 Durée : 00h00 

21 octobre
 Durée : 00h00 

20 octobre
 Durée : 00h00 

19 octobre
 Durée : 00h00 

18 octobre
 Durée : 00h00 

17 octobre
 Durée : 00h00 

16 octobre
 Durée : 00h00 

15 octobre
 Durée : 00h00 

14 octobre
 Durée : 00h00 

13 octobre
 Durée : 00h00 

12 octobre
 Durée : 00h00 

11 octobre
 Durée : 00h00 

10 octobre
 Durée : 00h00 

9 octobre
 Durée : 00h00 

8 octobre
 Durée : 00h00 

7 octobre
 Durée : 00h00 

6 octobre
 Durée : 00h00 

5 octobre
 Durée : 00h00 

4 octobre
 Durée : 00h00 

3 octobre
 Durée : 00h00 

2 octobre
 Durée : 00h00 

1 octobre
 Durée : 00h00 

30 septembre
 Durée : 00h00 

29 septembre
 Durée : 00h00 

28 septembre
 Durée : 00h00 

27 septembre
 Durée : 00h00 

26 septembre
 Durée : 00h00 

25 septembre
 Durée : 00h00 

24 septembre
 Durée : 00h00 

23 septembre
 Durée : 00h00 

22 septembre
 Durée : 00h00 

21 septembre
 Durée : 00h00 

20 septembre
 Durée : 00h00 

19 septembre
 Durée : 00h00 

18 septembre
 Durée : 00h00 

17 septembre
 Durée : 00h00 

16 septembre
 Durée : 00h00 

15 septembre
 Durée : 00h00 

14 septembre
 Durée : 00h00 

13 septembre
 Durée : 00h00 

12 septembre
 Durée : 00h00 

11 septembre
 Durée : 00h00 

10 septembre
 Durée : 00h00 

9 septembre
 Durée : 00h00 

8 septembre
 Durée : 00h00 

7 septembre
 Durée : 00h00 

6 septembre
 Durée : 00h00 

5 septembre
 Durée : 00h00 

4 septembre
 Durée : 00h00 

3 septembre
 Durée : 00h00 

2 septembre
 Durée : 00h00 

1 septembre
 Durée : 00h00 

31 août
 Durée : 00h00 

30 août
 Durée : 00h00 

29 août
 Durée : 00h00 

28 août
 Durée : 00h00 

27 août
 Durée : 00h00 

26 août
 Durée : 00h00 

25 août
 Durée : 00h00 

24 août
 Durée : 00h00 

23 août
 Durée : 00h00 

22 août
 Durée : 00h00 

21 août
 Durée : 00h00 

20 août
 Durée : 00h00 

19 août
 Durée : 00h00 

18 août
 Durée : 00h00 

17 août
 Durée : 00h00 

16 août
 Durée : 00h00 

15 août
 Durée : 00h00 

14 août
 Durée : 00h00 

13 août
 Durée : 00h00 

12 août
 Durée : 00h00 

11 août
 Durée : 00h00 

10 août
 Durée : 00h00 

9 août
 Durée : 00h00 

8 août
 Durée : 00h00 

7 août
 Durée : 00h00 

6 août
 Durée : 00h00 

5 août
 Durée : 00h00 

4 août
 Durée : 00h00 

3 août
 Durée : 00h00 

2 août
 Durée : 00h00 

1 août
 Durée : 00h00 

31 juillet
 Durée : 00h00 

30 juillet
 Durée : 01h00 

29 juillet
 Durée : 00h51 

28 juillet
 Durée : 01h06 

27 juillet
 Durée : 01h01 

26 juillet
 Durée : 01h06 

25 juillet
 Durée : 01h00 

24 juillet
 Durée : 01h00 

23 juillet
 Durée : 01h02 

22 juillet
 Durée : 00h56 

21 juillet
 Durée : 00h59 

20 juillet
 Durée : 00h34 

19 juillet
 Durée : 02h00 

18 juillet
 Durée : 01h02 

17 juillet
 Durée : 01h23 

16 juillet
 Durée : 00h59 

15 juillet
 Durée : 00h51 
- - - - - - - - 2 - - - - - - - - - - - - - - - - - - - - - - - - 8 - 2 - - 4 - - - - - 14 7 - 8 - 4 5 - - - 4 - 45 14 - 22 - 8 5 - 6 - 8 - - - - - - - - - - 9 - - - - - - - - - - - - - - - - - - - - - - - - - - - - - - - - - - - - - - - - - - - - - - - - - - - - - - - - - - - - - - - - - - - - - - -
- - - - - - - - - - - - - - - - - - - - - - - - - - - - - - - - - - - - - 5 - - - - - - - - - - - - - - - - - - - - - - - - - - - - - - - - - - - - - - - - - - - - - - - - - - - - - - - - - - - - - - - - - - - - - - - - - - - - - - - - - - - - - - - - - - - - - - - - - - - - - - - - - - - - - - -
- - - - - - - - - - - - - - - - - - - - - - - - - 21 - - - - - - - - - - - 12 - 26 - - - - - - - - - - - - - - - - - - - - - - - - - - - - - - - - - - - - - - - - - - - - - - - - - - - - - - - - - - - - - - - - - - - - - - - - - - - - - - - - - - - - - - - - - - - - - - - - - - - - - - - - - - - - -
- - - - - - - - - - - - - - - - - - - - - - - - - 39 - - - - - - - - - - - - - - - - - - - - - - - - - - - - - - - - - - - - - - 6 - - - - - - - 2 - - - - - - - - - - - - - - - - - - - - - - - - - - - - - - - - - - - - - - - - - - - - - - - - - - - - - - - - - - - - - - - - - - - - - - - - - - - -
- - - - - - - - - - - - - - - - - - - - - - - - - - - - - - - - - - - - - - - - - - - - - - - - - - - - - - - - - - - - - - - - - - - - - - - - - - - - - - - - - - - - - - 15 - - - - - - - - - - - - - - - - - - - - - - - - - - - - - - - - - - - - - - - - - - - - - - - - - - - - - - - - - - - - - -
1 - - - - - - - - - - - - - - - - - - - - - - - - - - - - - - - - - - - - - - - - - - - - - - - - - - - - - - - - - - - - - - - - - - - - - - - - - - - - - - - - - - - - - - - - - - - - - - - - - - - - - - - - - - - - - - - - - - - - - - - - - - - - - - - - - - - - - - - - - - - - - - - - - - - -
2 - - - - - - - - - 1 - - - - - - - - - - - 1 - 2 - - 2 2 - 4 3 - 3 - 6 - 1 - 4 - - - - - - - 3 - 1 - 2 - 2 - - - 1 2 - - 2 - 2 - - - - - - - - - - - - - - - - - - - 1 - - - - - - 6 - - - - - - - - 2 1 - - - - - - - - - - - - - - - - - - - - - - - - - - - - - - - - - - - - - - - - - - - - - - - -
- - - - 12 - - 12 79 - 13 - - - - - 23 29 - - 48 67 20 35 212 115 55 253 170 190 107 58 83 122 80 344 281 143 622 597 60 30 9 68 321 167 171 735 220 235 35 79 3 215 761 447 93 214 549 592 886 138 46 1079 682 414 136 78 514 2 507 23 456 152 127 6 2 60 - 62 287 555 180 71 117 274 380 263 164 123 334 541 67 23 20 27 19 77 90 25 63 114 123 136 22 117 293 317 368 35 86 12 - 7 162 29 42 1 67 14 - 6 4 5 - - - 5 24 33 8 15 - 11 - - - - - - - 8 - - - - - - -
- - - - - - - - - - - - - - - - - - - - - - - - - - - - - - - - - - - - - - - - - - - - - - - - - - - - - - - - - - 1 - - - - - - - - - - - - - - - - - - - - - - - - - - - - - - - - - - - - - - - - - - - - - - - - - - - - - - - - - - - - - - - - - - - - - - - - - - - - - - - - - - - - - - - - - -
- - - - - - - - - - - - - - - - - - - - - - - - - - - - - - - - - - - - - - - - - - - - - - - - - - - - - - - - - 1 - - - - - - - - - - - - - - - - - - - - - - - - - - - - - - - - - - - - - - - - - - - - - - - - - - - - - - - - - - - - - - - - - - - - - - - - - - - - - - - - - - - - - - - - - - -
- - - - - - - - - - - - - - - - - - - - - 3 - - 13 40 - 2 1 2 15 8 3 5 2 - - - 5 2 - - - - 9 - 3 3 - 7 - 3 - 3 8 8 19 31 9 76 8 4 - 12 2 - 3 1 1 2 4 - 5 1 - - - - - 8 3 - - 3 6 16 2 20 5 - 22 1 - - - - 4 5 - 3 1 - - 4 - - - - 12 2 6 1 - - - 7 - 2 3 3 - - - - - - - - - - - - - - - - 3 - - 2 - - - - - - - - -
- - - - - - - - - - - - - - - - - - - - - - - - 1 - - - - - 3 - - - - - - - - - - - - - 1 - - 12 34 23 - 16 - 1 - 6 - 42 42 24 - 1 1 75 17 - 17 36 28 1 9 2 1 - - - - - - 11 46 58 44 38 - 34 111 220 10 1 152 24 - - 12 2 9 17 23 51 21 10 1 9 16 11 20 4 50 - 52 - 3 - 4 - - 14 13 - 2 1 - 7 - - 11 - 7 - 15 7 6 6 - 5 7 11 - - - 1 - - - - - - 4
- - - - - - - - - - - - - - - - - - - - - - - - - - - - - - - - - - - - - - - - - - - - - - - - - - - - - - - - - - - - - - - - - - - - - - - - - - - - - - - - - - - - - - - - - - - - - - - - - - - - - - - - - - - 1 - - - - - - - - - - - - - - - - - - - - - - - - - - - - - - - - - - - - - - - - -
- - - - - - - - - - - - - - - - - - - - - - - - 1 - - - - - - - - - - - - - - - - - - - - - 1 - - - - - - - - - - - - - - - - - 1 - 1 - - - 1 - 16 - 1 - - - 1 - - - 3 5 - - - - - 6 6 2 - 1 2 1 - - - 1 - - - 7 2 - 2 2 6 1 - 7 - - - - 23 1 - 5 4 - - - - - - - - - - 3 - 1 - - - - - - - - - - - 1 - - -
- - - - - - - - - - - - - - - - - - - - - 14 - - - 1 - 2 - - - - - - - - - - - - - - - - 5 - - - - - - - - - - - - - 7 - - - - - - - - - 18 - 4 - - - - - - - - - - - 43 128 34 8 31 56 107 139 156 19 - 42 110 138 5 230 54 60 103 101 17 211 319 184 62 209 95 - - 155 - - 46 54 325 - - 56 4 - - - - - - - - 1 - - - - - - - - - - - - - - - - - - -
- - - - - - - - - - - - - - - - - - - - - - - - - - - - - - - - - - - - - - - - - - - - - - - - - - - 1 - - - - - - 1 - 1 - - - 2 - - - - - 3 2 - - 1 - - - 1 2 - 2 7 8 6 18 5 11 - 11 69 27 23 22 102 24 19 15 22 50 7 3 18 90 123 8 7 8 168 252 25 500 - 11 - - 1 - - - - - - - - - - - - - - - - - 1 - - - - - - - - - - - - - -
- - - - - - - - - - - - - - - - - - - - - - - - - - - - - - - - - - - - - - - - - - - - - - - - - - - - - 1 - - - - - - - - - - - 1 - - 1 - - 2 - 1 - - - - - 1 3 5 - 8 1 3 3 21 7 3 13 6 5 8 2 3 1 7 - 13 9 5 8 8 29 12 29 38 40 15 8 467 - 193 13 10 175 50 97 165 383 371 53 235 635 83 51 94 452 234 470 899 509 99 1793 34 208 120 45 1 53 44 23 33 15 5 24 6 19
22 - - - 11 - 400 598 439 - 226 - - - - - 35 4 - - 50 876 202 44 181 108 63 297 152 127 461 47 139 9 238 59 4 1 1 4 - 1 35 12 97 52 424 170 75 39 7 195 34 154 263 328 124 588 166 233 323 152 15 100 487 104 32 7 1178 231 189 238 74 26 7 - 1 17 85 157 331 368 217 218 6 31 35 49 44 15 24 18 4 - - - 1 - - 2 - - - 3 1 - 3 - - 2 - 1 - - 1 - - - - 1 - 2 1 - 3 - - - 1 1 1 - 3 1 3 - - - - - 1 - - - - - - - -
- - - - - - - - - - - - - - - - - - - - - - - - - - - - - - - - - - - - - - - - - - - - - - - - - - - - - - - - - - - - - - - - - - - - - - - - - - - - - - - - - - - - - - - - - - - - - - - - - - - - - - - - - - - - - - - - - - - - - - - - - - - - - - - - - - - - - - - - - - - - - - - - 7 - - - -
- - - - - - - - - - - - - - - - - - - - - - - - - - - - - - - - - - - - - - - - - - - - - - - - - - - - - - - - - - - - - - - - - - - - - - 1 - - - 1 - - - - - - - - - - - - - - - - - - - - - - - - - 1 - 1 - - - - - - - - 1 - - - - - 1 - - - - - - - - - - - - - - - - - - - - - - - - - - - - - - -
- - - - - - - - - - - - - - - - - - - - - - - - 1 - - - - - - - - - - - - - - - - - - - - - - - - - - - - - - - - - - - - - - - - - - 1 - - - - - - - - - - - - - - - - - - - - - - - - - - - - - - - - - - - - - - - - - - - - - 1 - - - - - - - - - - - - - - - - - - - - - - - - - - - - - - - - - - -
- - - - - - - - - - - - - - - - - - - - - - - - - - - - - - 1 2 - - 2 2 1 - - 1 - - - - 1 - 3 4 4 4 - 4 - 5 5 15 1 5 13 12 6 3 2 5 7 4 21 12 23 - 7 1 3 1 3 3 - 2 5 7 3 4 7 7 7 14 25 13 1 3 23 9 4 5 24 - 9 3 31 11 27 2 1 5 4 3 2 5 3 4 5 - - - 2 - - - - - - - - - - - - - - - - - - - - - - - - - - - - - - - - - -
- - - - - - - - 1 - - - - - - - - - - - 1 3 4 1 6 3 2 2 3 2 3 1 - - 1 - - - 1 2 - - - - - 1 2 2 1 3 - - - - - - - - - - - - - 1 1 - - - - - - - - - - - - - - - - - - - - - - - - - - - - - - - - - - - - - - - - - - - - - - - - - - - - - - - - - - - - - - - - - - - - - - - - - - - - - - - - - - - -
- - - - - - - - - - - - - - - - - - - - - - - - - - - - - - - - - - - - - - - - - - - - - - - - - - - - - - - - - - - 1 - - - - - - - - - - - - - - - - - - - - - - - - - - - - - - - - - - - - - - - - - - - - - - - - - - - - - - - - - - - - - - - - - - - - - - - - - - - - - - - - - - - - - - - - -
- - - - - - - - - - - - - - - - - - - - - - - - - - - - - - - - - - - - - - - - - - - - - - - - - - - - - - - - - - - - - - - - - - - - - - - - - - - - - - - - - - - - - - - - - - - - - - 1 - - - - - - 1 - - 2 - - - - - 1 - - - - - - - - - - - - - - - - - - - - - - - - - - - - - - - - - - - - - -
- - - - - - - 1 - - - - - - - - - - - - - - - - - - - - - - - - - 1 - - - - 1 - - - - - - - - - - - - - - - - - - - - - - - - - - - - - - - - - - - - - - - - - - - - - - - - - - - - - - - - - - - - - - - - - - - - - - - - - - - - - - - - - - - - - - - - - - - - - - - - - - - - - - - - - - - - - -
1 - - - - - - - 1 - 1 - - - - - - - - - 2 14 12 1 8 14 - 20 15 25 91 41 43 1 32 19 4 - 2 7 - - 21 3 13 26 97 36 15 32 2 40 8 27 55 110 - 12 8 10 13 7 2 13 22 10 2 2 50 5 6 4 - 1 2 - 1 - - 3 5 5 3 15 1 4 2 3 1 - 1 2 1 1 2 1 - - - 5 2 - 2 1 2 - 1 1 4 4 - 3 - - - - - - - - - - - - - - - - - - - - - - - - - - - - - - - - - - - - -
17 - - - 19 - 52 426 383 - 246 - - - - - 1 - - - 119 1584 198 11 179 361 7 447 207 271 888 68 482 20 241 70 - - - 7 - 2 120 - 66 231 1952 115 38 206 4 558 17 151 271 558 3 202 51 79 132 26 - 69 460 56 66 7 847 22 23 30 19 4 7 1 2 1 11 42 91 122 64 92 1 2 8 13 10 7 23 32 3 4 8 - - 1 - 3 3 1 3 1 - - - - - - - 4 - - - - - - - - - - - - - - - - - - 1 - - - - - - - - - - - - - - - - - -
- - - - - - - - - - - - - - - - - - - - - - - - - - - - - - - - - - - - - - - - - - - - - - - - - - - - - - - - - 1 - - - - - - - - - - - - - - - - - - - - - - - - - - - - - - - - - - - - - - - - - - - - - - - - - - - - - - - - - - - - - - - - - - - - - - - - - - - - - - - - - - - - - - - - - - -
- - - - - - - - - - - - - - - - - - - - - - - - - - - - - - - - - - 1 - - - - - - - - - - - - - - - - - - - - - - - - - - - - - - - - - - - - - - - - - - - - - - - - - - - - - - - - - - - - - - - - - - - - - - - - - - - - - - - - - - - - - - - - - - - - - - - - - - - - - - - - - - - - - - - - - -
- - - - - - - - - - - - - - - - - - - - - - - - - - - - - - - - - - 1 1 - - - - - - - - - - - - - - - - - 1 1 - - - 1 3 - - - 2 1 - 3 1 2 3 4 2 - 2 - - - 1 2 1 4 2 2 3 - 2 2 2 1 - 4 2 2 1 1 1 5 2 1 6 4 - - 1 1 2 - - - 1 - 2 - - - - - 2 - - 1 - - - - - - - - - - - - - 1 - - - - - - - - - - - - - -
- - - - - - - - - - - - - - - - - - - - - 2 - - - - - 1 - 2 1 - 6 - - - - - 1 - - 1 3 - 5 1 2 9 3 6 4 13 12 15 31 76 1 17 7 30 8 11 6 11 32 19 42 15 87 19 26 1 - 2 - - 1 - 7 - 1 3 4 5 2 13 7 1 1 - 1 - - - 1 3 1 - - 1 - - - - 2 1 1 - - - - 1 - - - - - - - - - - - - - - - - - - - - - - - - - - - - - - - - - - - - -
- - - - - - - - - - - - - - - - - - - - - 1 - - - - - 1 - - 1 - - 1 - 4 1 1 - 5 - - - - 1 - - - 1 - - 1 - 1 1 - - - - 3 - 2 1 1 - 3 1 - - - - - - 1 - - 1 - - - - - - - - - - - - - - - - - - - - - - - - - - - - - - - - - - - - - - - - - - - - - - - - - - - - - - - - - - - - - - - - - - - - - - - -
- - - - - - - - - - - - - - - - - - - - - - - - - - - - - - - - - - - - - - - - - - - - - - - - - - - - - - - - - - - 2 1 - - 2 1 - 1 - - - 1 - - - - - - - - - - - 1 - - - - - - - - - - - - - - - - - - - - - - - - - - - - - - - - - - - - - - - - - - - - - - - - - - - - - - - - - - - - - - - - - -
- - - - - - - - - - - - - - - - - - - - - 2 1 - - - - - 1 - - - - - 2 2 - - - - - - - - - - - - - - - - - - - - - - - - - - - - - - - - - - - - - - - - - - - - - - - - - - - - - - - - - - - - - - - - - - - - - - - - - - - - - - - - - - - - - - - - - - - - - - - - - - - - - - - - - - - - - - - - -

 Autres espèces
 
Total 
  Aucune espèce (No aves)- 
  Canard indéterminé (Anatidae sp.)16 
  Rapace indéterminé (Falconiformes sp.)104 
  Aigle pomarin ou criard (Aquila pomarina / clanga)1 
  Faucon indéterminé (Falco sp.)5 
  Grue cendrée (Grus grus)1301 
  Limicole indéterminé (Charadriiformes sp. (magna))23 
  Vanneau huppé (Vanellus vanellus)271 
  Bécassine indéterminée (Gallinago sp.)1 
  Bécassine des marais (Gallinago gallinago)24 
  Courlis corlieu (Numenius phaeopus)10 
  Courlis cendré (Numenius arquata)12 
  Chevalier aboyeur (Tringa nebularia)3 
  Chevalier culblanc (Tringa ochropus)6 
  Goéland indéterminé (Larus sp. (magna))6 
  Mouette mélanocéphale (Larus melanocephalus)6 
  Mouette rieuse (Chroicocephalus ridibundus)953 
  Goéland cendré (Larus canus)1 
  Goéland brun (Larus fuscus)1 
  Goéland leucophée (Larus michahellis)266 
  Sterne caspienne (Hydroprogne caspia)8 
  Sterne pierregarin (Sterna hirundo)7 
  Pigeon indéterminé (Columba sp.)18543 
  Pigeon biset domestique (Columba livia f. domestica)5 
  Pigeon colombin (Columba oenas)2057 
  Pigeon ramier (Columba palumbus)19872 
  Coucou gris (Cuculus canorus)1 
  Hibou des marais (Asio flammeus)1 
  Martinet noir (Apus apus)17928 
  Martinet à ventre blanc (Apus melba)63 
  Guêpier d'Europe (Merops apiaster)822 
  Pic épeiche (Dendrocopos major)1 
  Alouette indéterminée (Alaudidae sp.)23 
  Alouette calandrelle (Calandrella brachydactyla)1 
  Alouette lulu (Lullula arborea)682 
  Alouette des champs (Alauda arvensis)4404 
  Hirondelle indéterminée (Hirundinidae sp.)10211 
  Hirondelle de rivage (Riparia riparia)94 
  Hirondelle de rochers (Ptyonoprogne rupestris)35 
  Hirondelle rustique (Hirundo rustica)8520 
  Hirondelle de fenêtre (Delichon urbicum)873 
  Pipit rousseline (Anthus campestris)1 
  Pipit des arbres (Anthus trivialis)64 
  Pipit farlouse (Anthus pratensis)948 
  Pipit spioncelle (Anthus spinoletta)42 
  Bergeronnette printanière (Motacilla flava)737 
  Bergeronnette des ruisseaux (Motacilla cinerea)170 
  Bergeronnette grise (Motacilla alba)5389 
  Accenteur mouchet (Prunella modularis)115 
  Merle / Grive indéterminé (Turdus sp.)10011 
  Rougequeue noir (Phoenicurus ochruros)1 
  Merle noir (Turdus merula)7 
  Grive litorne (Turdus pilaris)585 
  Grive musicienne (Turdus philomelos)1496 
  Grive mauvis (Turdus iliacus)478 
  Grive draine (Turdus viscivorus)305 
  Pouillot véloce (Phylloscopus collybita)1 
  Mésange indéterminée (Paridae sp.)1403 
  Mésange à longue queue (Aegithalos caudatus)3 
  Mésange noire (Periparus ater)96 
  Mésange bleue (Cyanistes caeruleus)4619 
  Mésange charbonnière (Parus major)589 
  Sittelle torchepot (Sitta europaea)2 
  Rémiz penduline (Remiz pendulinus)2 
  Geai des chênes (Garrulus glandarius)1561 
  Cassenoix moucheté (Nucifraga caryocatactes)2 
  Choucas des tours (Corvus monedula)187 
  Corbeau freux (Corvus frugilegus)347 
  Corneille noire (Corvus corone)198 
  Étourneau sansonnet (Sturnus vulgaris)40866 
  Passereau indéterminé (Passeriformes sp.)16929 
  Moineau domestique (Passer domesticus)7 
  Moineau friquet (Passer montanus)3 
  Fringille indéterminé (Fringillidae sp.)9938 
  Pinson des arbres (Fringilla coelebs)52670 
  Pinson du Nord (Fringilla montifringilla)5641 
  Serin cini (Serinus serinus)191 
  Verdier d'Europe (Carduelis chloris)709 
  Chardonneret élégant (Carduelis carduelis)2864 
  Tarin des aulnes (Carduelis spinus)2447 
  Linotte mélodieuse (Carduelis cannabina)336 
  Bouvreuil pivoine (Pyrrhula pyrrhula)14 
  Bouvreuil trompeteur (Pyrrhula pyrrhula pyrrhula)6 
  Grosbec casse-noyaux (Coccothraustes coccothraustes)1055 
  Bruant jaune (Emberiza citrinella)16 
  Bruant fou (Emberiza cia)1 
  Bruant ortolan (Emberiza hortulana)1 
  Bruant des roseaux (Emberiza schoeniclus)399 
  Bruant proyer (Emberiza calandra)8 

10 décembre
 Durée : 01h00 

9 décembre
 Durée : 00h00 

8 décembre
 Durée : 00h00 

7 décembre
 Durée : 00h00 

6 décembre
 Durée : 00h30 

5 décembre
 Durée : 00h00 

4 décembre
 Durée : 00h30 

3 décembre
 Durée : 00h30 

2 décembre
 Durée : 00h30 

1 décembre
 Durée : 00h00 

30 novembre
 Durée : 01h00 

29 novembre
 Durée : 00h00 

28 novembre
 Durée : 00h00 

27 novembre
 Durée : 00h00 

26 novembre
 Durée : 00h00 

25 novembre
 Durée : 00h00 

24 novembre
 Durée : 00h00 

23 novembre
 Durée : 00h40 

22 novembre
 Durée : 00h00 

21 novembre
 Durée : 00h00 

20 novembre
 Durée : 01h00 

19 novembre
 Durée : 01h00 

18 novembre
 Durée : 00h00 

17 novembre
 Durée : 00h00 

16 novembre
 Durée : 00h00 

15 novembre
 Durée : 00h00 

14 novembre
 Durée : 00h00 

13 novembre
 Durée : 00h00 

12 novembre
 Durée : 00h00 

11 novembre
 Durée : 00h00 

10 novembre
 Durée : 00h00 

9 novembre
 Durée : 00h00 

8 novembre
 Durée : 00h00 

7 novembre
 Durée : 00h00 

6 novembre
 Durée : 00h00 

5 novembre
 Durée : 00h00 

4 novembre
 Durée : 00h00 

3 novembre
 Durée : 00h00 

2 novembre
 Durée : 00h00 

1 novembre
 Durée : 00h00 

31 octobre
 Durée : 00h00 

30 octobre
 Durée : 00h00 

29 octobre
 Durée : 00h00 

28 octobre
 Durée : 00h00 

27 octobre
 Durée : 00h00 

26 octobre
 Durée : 00h00 

25 octobre
 Durée : 00h00 

24 octobre
 Durée : 00h00 

23 octobre
 Durée : 00h00 

22 octobre
 Durée : 00h00 

21 octobre
 Durée : 00h00 

20 octobre
 Durée : 00h00 

19 octobre
 Durée : 00h00 

18 octobre
 Durée : 00h00 

17 octobre
 Durée : 00h00 

16 octobre
 Durée : 00h00 

15 octobre
 Durée : 00h00 

14 octobre
 Durée : 00h00 

13 octobre
 Durée : 00h00 

12 octobre
 Durée : 00h00 

11 octobre
 Durée : 00h00 

10 octobre
 Durée : 00h00 

9 octobre
 Durée : 00h00 

8 octobre
 Durée : 00h00 

7 octobre
 Durée : 00h00 

6 octobre
 Durée : 00h00 

5 octobre
 Durée : 00h00 

4 octobre
 Durée : 00h00 

3 octobre
 Durée : 00h00 

2 octobre
 Durée : 00h00 

1 octobre
 Durée : 00h00 

30 septembre
 Durée : 00h00 

29 septembre
 Durée : 00h00 

28 septembre
 Durée : 00h00 

27 septembre
 Durée : 00h00 

26 septembre
 Durée : 00h00 

25 septembre
 Durée : 00h00 

24 septembre
 Durée : 00h00 

23 septembre
 Durée : 00h00 

22 septembre
 Durée : 00h00 

21 septembre
 Durée : 00h00 

20 septembre
 Durée : 00h00 

19 septembre
 Durée : 00h00 

18 septembre
 Durée : 00h00 

17 septembre
 Durée : 00h00 

16 septembre
 Durée : 00h00 

15 septembre
 Durée : 00h00 

14 septembre
 Durée : 00h00 

13 septembre
 Durée : 00h00 

12 septembre
 Durée : 00h00 

11 septembre
 Durée : 00h00 

10 septembre
 Durée : 00h00 

9 septembre
 Durée : 00h00 

8 septembre
 Durée : 00h00 

7 septembre
 Durée : 00h00 

6 septembre
 Durée : 00h00 

5 septembre
 Durée : 00h00 

4 septembre
 Durée : 00h00 

3 septembre
 Durée : 00h00 

2 septembre
 Durée : 00h00 

1 septembre
 Durée : 00h00 

31 août
 Durée : 00h00 

30 août
 Durée : 00h00 

29 août
 Durée : 00h00 

28 août
 Durée : 00h00 

27 août
 Durée : 00h00 

26 août
 Durée : 00h00 

25 août
 Durée : 00h00 

24 août
 Durée : 00h00 

23 août
 Durée : 00h00 

22 août
 Durée : 00h00 

21 août
 Durée : 00h00 

20 août
 Durée : 00h00 

19 août
 Durée : 00h00 

18 août
 Durée : 00h00 

17 août
 Durée : 00h00 

16 août
 Durée : 00h00 

15 août
 Durée : 00h00 

14 août
 Durée : 00h00 

13 août
 Durée : 00h00 

12 août
 Durée : 00h00 

11 août
 Durée : 00h00 

10 août
 Durée : 00h00 

9 août
 Durée : 00h00 

8 août
 Durée : 00h00 

7 août
 Durée : 00h00 

6 août
 Durée : 00h00 

5 août
 Durée : 00h00 

4 août
 Durée : 00h00 

3 août
 Durée : 00h00 

2 août
 Durée : 00h00 

1 août
 Durée : 00h00 

31 juillet
 Durée : 00h00 

30 juillet
 Durée : 01h00 

29 juillet
 Durée : 00h51 

28 juillet
 Durée : 01h06 

27 juillet
 Durée : 01h01 

26 juillet
 Durée : 01h06 

25 juillet
 Durée : 01h00 

24 juillet
 Durée : 01h00 

23 juillet
 Durée : 01h02 

22 juillet
 Durée : 00h56 

21 juillet
 Durée : 00h59 

20 juillet
 Durée : 00h34 

19 juillet
 Durée : 02h00 

18 juillet
 Durée : 01h02 

17 juillet
 Durée : 01h23 

16 juillet
 Durée : 00h59 

15 juillet
 Durée : 00h51 
-----------------------------------------------------------------------------------------------------------------------------------------------------
-------------------------15------------------------------------------------------------1--------------------------------------------------------------
----------------------------1-----1-----------5----1--13-31-1---8-131143-1------55226-1--12342-4-1--41--1----2--1-------------------------------------
------------------------------------------------------------------------------1----------------------------------------------------------------------
-----------------------------------1----------1------------1----1------------------1-----------------------------------------------------------------
--------197-38--------------715-522-115619-43-----------31-3--55-106-----------------------------------------------------------------------------------------------
---------------------------------------------------6----5-----------------------1------------------9---------------------------------2---------------
-------------------------187----24---13-----------1315-3--------------2--7----------------------------------------------------------2-----5----------------
---------------------------------------------------------------------------------------------------------1-------------------------------------------
-------------------------3----------------------------13--1---------------------------------------------------------------------7---------------------
----------------------------------------------------------------------1------------------------------1-------------------------1---1-6---------------
-------------------------------------4-----------------------------------------------11-----------12---------2--------------------1------------------
------------------------------------------------1-----------------------------------------------2----------------------------------------------------
---------------------------------------------------1-------------------------5-----------------------------------------------------------------------
------------------------------1--------------3-----------2-------------------------------------------------------------------------------------------
------------------------------1----------------1-------------------------------------------------------------------1-3-------------------------------
----------29-----------------851329-254------------2-5332-76-------417---318-------3-----8-----4----8-----1------------------2------------7-20-4-47--------------
-----------------------------------------------------------------1-----------------------------------------------------------------------------------
-----------------------------------------------------------------------------------1-----------------------------------------------------------------
----6--1--1-----------62321-36111511411692114-12---17-812--6341412--272--1--41-2---213----1311------4---3---12------6--6---2---------6---2----------------
---------------------------------------------------------------------1-----------------5-------------------2-----------------------------------------
-------------------------------------------------------------------7---------------------------------------------------------------------------------
--------------------------------------------11077419234524753500-56270273987--6493087552548--47486---78-40-----------20--------8------------5--------------------------------------------
-------------------------------------------------------1-----------------------------1-----------3---------------------------------------------------
----------------------------3424111-25-----5-63754326886011761107920-3335188225431991-3166670441632722---4294220114167621624618459-11-69173571822----66---------------------------------------
---------------------------411343881097875977558180--3590-756018774962443276518681801100105243254160167311883010235635819231724370248-2040212120164------1823-------------------------------------------------------------------
-----------------------------------------------------------------1-----------------------------------------------------------------------------------
--------------------------------1--------------------------------------------------------------------------------------------------------------------
---------------------------------------------------------------1-----------------------1--------3-----13----2--9-49283--33434526-2075523566--11065088936215994142573067230889914998295266397380-532
-----------------------------------------------------1-----------1----------------------1-2-116-----------------2-12-----13-----2-1------1--3-1-1-4-1---
-------------------------------------------------------------------------------12----5228192-162-56------39131254737-5--39-15----------------------------------------
-----------------------------------------------------------1-----------------------------------------------------------------------------------------
------------------------------------------------------23----------------------------------------------------------------------------------------------
---------------------------------------------------------------------------------------1-------------------------------------------------------------
------------------------1-----2-82211427117--10--242-151543-24511912465418979124473146846-1------------------------------------------------------------------------------
---------------------19--1515-4-717186-51813686481128222--352611472071751181071185-78020891523414738--3-3--1354---1--------------------------------------------------------------------------
-------------------------------------------------------33---13--466-581512312184801516372340169223352252212--18105621559220245650314410-43210-13346-1222673-310500-152035-----------------------------------------
---------------------------------------------------------------------------------------11-------2--1--1-1-315---------------------------62--4162142--5-
------------------------11-----2----------------------16---------12---------------------------3--------------------------------------------------------
------------------------------122--9---------------41321-58311112--847100161571726145-334308365509176-626-222977-9413594213752413599196764919235861141071034998197222355-----------------------------------------
-------------------------------------------------------4--513-6155-111183-3835----23143--------13-22370-2940-75165---15551----2-----------------------------------------
-----------------------------------------------------------------------------------------1-----------------------------------------------------------
----------------------------------------------1-----------1-11-1--415511-3-1--11--5211-6211------32-----2---1-----------------------------------------
--------------------------------120-56-278--11--13-3-98--630163467220612221144323133565210--2---------------------------------------------------