Visiteur Anonyme
HAUTE-SAVOIE
Accueil
 
Partenaires
 
La Faune d'Auvergne-Rhône-Alpes
Consulter les observations
  Les observations
    - 
Les 2 derniers jours
    - 
Les 5 derniers jours
    - 
Les 15 derniers jours
     Synthèse migration
       - 
Le Hucel
       - 
Défilé de l'Ecluse
     Données et analyses
       - 
Pinson du Nord 21-22
       - 
Geai des chênes 21-22
       - 
Grive musicienne 21-22
       - 
Grive mauvis 21-22
       - 
Tarin des aulnes 2021
       - 
Milan royal 2021
       - 
Vulcain 2021
       - 
Pic mar 19-21
       - 
Castor d'Eurasie 17-21
       - 
Souris grise (M.m. domesticus) 17-21
       - 
Sonneur à ventre jaune 11-21
       - 
Grenouille agile 18-21
       - 
Grenouille rousse 2021
       - 
Lézard des souches 11-21
       - 
Grande Aigrette 21-22
       - 
Gypaète barbu 20-21
       - 
Vautour moine 2021
       - 
Vautour fauve 2021
 - 
Les galeries
Information
  Aide
    - 
Espèces à publication limitée
    - 
Explication des symboles
    - 
les FAQs
  Statistiques
La faune de Haute-Savoie
 - 
Plan Vigilance Avifaune 74
 - 
Carte dynamique de la faune de Haute-Savoie
 - 
Carte dynamique des oiseaux nicheurs de Haute-Savoie
Vie associative
Conservation
Suivis et Expertises
Sensibilisation
Groupes faunistiques
Utilisation du site
Offres d'emploi
Les liens

La LPO est le reprsentant
pour la FRANCE de


Synthèse migration 2008 : Défilé de l'Ecluse - site suivi migration (Chevrier)

Date : du mardi 15 juillet 2008 au dimanche 30 novembre 2008

Nombre de jour de suivi : 130
Nombre d'heures de suivi : 972h15

Nombre d'oiseaux : 406989
Nombre de rapaces : 40609



 Cigognes et rapaces
 
Total 
  Canard colvert (Anas platyrhynchos)2 
  Garrot à oeil d'or (Bucephala clangula)1 
  Harle bièvre (Mergus merganser)26 
  Grand Cormoran (Phalacrocorax carbo)5123 
  Pélican blanc (Pelecanus onocrotalus)1 
  Aigrette garzette (Egretta garzetta)1 
  Grande Aigrette (Casmerodius albus)145 
  Héron cendré (Ardea cinerea)976 
  Héron pourpré (Ardea purpurea)7 
  Cigogne noire (Ciconia nigra)93 
  Cigogne blanche (Ciconia ciconia)960 
  Spatule blanche (Platalea leucorodia)2 
 Afficher phénologie  Bondrée apivore (Pernis apivorus)7346 
 Afficher phénologie  Milan noir (Milvus migrans)7066 
 Afficher phénologie  Milan royal (Milvus milvus)5580 
 Afficher phénologie  Pygargue à queue blanche (Haliaeetus albicilla)1 
 Afficher phénologie  Vautour fauve (Gyps fulvus)1 
 Afficher phénologie  Circaète Jean-le-Blanc (Circaetus gallicus)7 
 Afficher phénologie  Busard indéterminé (Circus sp.)1 
 Afficher phénologie  Busard des roseaux (Circus aeruginosus)316 
 Afficher phénologie  Busard Saint-Martin (Circus cyaneus)48 
 Afficher phénologie  Busard cendré (Circus pygargus)19 
 Afficher phénologie  Autour des palombes (Accipiter gentilis)5 
 Afficher phénologie  Épervier d'Europe (Accipiter nisus)1503 
 Afficher phénologie  Buse variable (Buteo buteo)18275 
 Afficher phénologie  Aigle pomarin (Aquila pomarina)1 
 Afficher phénologie  Aigle royal (Aquila chrysaetos)2 
 Afficher phénologie  Balbuzard pêcheur (Pandion haliaetus)72 
 Afficher phénologie  Faucon crécerelle (Falco tinnunculus)278 
 Afficher phénologie  Faucon émerillon (Falco columbarius)46 
 Afficher phénologie  Faucon hobereau (Falco subbuteo)35 
 Afficher phénologie  Faucon pèlerin (Falco peregrinus)7 

30 novembre
 Durée : 04h30 

29 novembre
 Durée : 06h00 

28 novembre
 Durée : 04h30 

27 novembre
 Durée : 02h30 

26 novembre
 Durée : 05h00 

25 novembre
 Durée : 05h45 

24 novembre
 Durée : 00h00 

23 novembre
 Durée : 05h00 

22 novembre
 Durée : 02h00 

21 novembre
 Durée : 00h00 

20 novembre
 Durée : 05h00 

19 novembre
 Durée : 05h30 

18 novembre
 Durée : 00h00 

17 novembre
 Durée : 05h00 

16 novembre
 Durée : 04h30 

15 novembre
 Durée : 06h00 

14 novembre
 Durée : 06h20 

13 novembre
 Durée : 06h15 

12 novembre
 Durée : 04h45 

11 novembre
 Durée : 02h30 

10 novembre
 Durée : 07h00 

9 novembre
 Durée : 06h45 

8 novembre
 Durée : 06h30 

7 novembre
 Durée : 06h15 

6 novembre
 Durée : 06h30 

5 novembre
 Durée : 06h30 

4 novembre
 Durée : 06h00 

3 novembre
 Durée : 07h00 

2 novembre
 Durée : 08h00 

1 novembre
 Durée : 06h30 

31 octobre
 Durée : 03h00 

30 octobre
 Durée : 04h30 

29 octobre
 Durée : 00h00 

28 octobre
 Durée : 00h00 

27 octobre
 Durée : 04h45 

26 octobre
 Durée : 09h00 

25 octobre
 Durée : 08h30 

24 octobre
 Durée : 08h15 

23 octobre
 Durée : 07h00 

22 octobre
 Durée : 03h00 

21 octobre
 Durée : 06h45 

20 octobre
 Durée : 07h30 

19 octobre
 Durée : 10h15 

18 octobre
 Durée : 10h00 

17 octobre
 Durée : 08h45 

16 octobre
 Durée : 03h30 

15 octobre
 Durée : 08h45 

14 octobre
 Durée : 09h30 

13 octobre
 Durée : 08h00 

12 octobre
 Durée : 09h10 

11 octobre
 Durée : 09h55 

10 octobre
 Durée : 10h30 

9 octobre
 Durée : 10h35 

8 octobre
 Durée : 07h00 

7 octobre
 Durée : 07h45 

6 octobre
 Durée : 09h15 

5 octobre
 Durée : 09h15 

4 octobre
 Durée : 09h00 

3 octobre
 Durée : 07h00 

2 octobre
 Durée : 07h00 

1 octobre
 Durée : 07h00 

30 septembre
 Durée : 07h00 

29 septembre
 Durée : 07h30 

28 septembre
 Durée : 09h00 

27 septembre
 Durée : 09h45 

26 septembre
 Durée : 08h00 

25 septembre
 Durée : 07h00 

24 septembre
 Durée : 07h15 

23 septembre
 Durée : 08h10 

22 septembre
 Durée : 08h15 

21 septembre
 Durée : 08h45 

20 septembre
 Durée : 10h30 

19 septembre
 Durée : 07h00 

18 septembre
 Durée : 07h00 

17 septembre
 Durée : 10h00 

16 septembre
 Durée : 08h30 

15 septembre
 Durée : 08h00 

14 septembre
 Durée : 07h35 

13 septembre
 Durée : 00h00 

12 septembre
 Durée : 00h00 

11 septembre
 Durée : 08h00 

10 septembre
 Durée : 09h00 

9 septembre
 Durée : 08h30 

8 septembre
 Durée : 08h30 

7 septembre
 Durée : 09h00 

6 septembre
 Durée : 00h00 

5 septembre
 Durée : 08h30 

4 septembre
 Durée : 00h00 

3 septembre
 Durée : 07h00 

2 septembre
 Durée : 09h15 

1 septembre
 Durée : 11h30 

31 août
 Durée : 09h25 

30 août
 Durée : 11h10 

29 août
 Durée : 09h00 

28 août
 Durée : 10h45 

27 août
 Durée : 10h30 

26 août
 Durée : 10h30 

25 août
 Durée : 11h20 

24 août
 Durée : 11h15 

23 août
 Durée : 09h00 

22 août
 Durée : 03h45 

21 août
 Durée : 09h00 

20 août
 Durée : 07h30 

19 août
 Durée : 07h30 

18 août
 Durée : 09h30 

17 août
 Durée : 09h30 

16 août
 Durée : 08h30 

15 août
 Durée : 09h00 

14 août
 Durée : 07h35 

13 août
 Durée : 08h15 

12 août
 Durée : 03h30 

11 août
 Durée : 04h00 

10 août
 Durée : 08h30 

9 août
 Durée : 08h00 

8 août
 Durée : 07h30 

7 août
 Durée : 07h15 

6 août
 Durée : 07h00 

5 août
 Durée : 07h30 

4 août
 Durée : 07h30 

3 août
 Durée : 09h00 

2 août
 Durée : 09h15 

1 août
 Durée : 07h30 

31 juillet
 Durée : 07h15 

30 juillet
 Durée : 07h15 

29 juillet
 Durée : 07h30 

28 juillet
 Durée : 07h20 

27 juillet
 Durée : 07h15 

26 juillet
 Durée : 07h15 

25 juillet
 Durée : 07h30 

24 juillet
 Durée : 07h00 

23 juillet
 Durée : 07h00 

22 juillet
 Durée : 07h00 

21 juillet
 Durée : 07h00 

20 juillet
 Durée : 04h45 

19 juillet
 Durée : 09h00 

18 juillet
 Durée : 07h30 

17 juillet
 Durée : 07h00 

16 juillet
 Durée : 07h00 

15 juillet
 Durée : 07h10 
- - - - - - - - - - - - - - - - - - - - - - - - - - - - - - - - - - - - - - - - - - - - - - - - - 2 - - - - - - - - - - - - - - - - - - - - - - - - - - - - - - - - - - - - - - - - - - - - - - - - - - - - - - - - - - - - - - - - - - - - - - - - - - - - - - - - - - - - - - - - -
- 1 - - - - - - - - - - - - - - - - - - - - - - - - - - - - - - - - - - - - - - - - - - - - - - - - - - - - - - - - - - - - - - - - - - - - - - - - - - - - - - - - - - - - - - - - - - - - - - - - - - - - - - - - - - - - - - - - - - - - - - - - - - - - - - - - - - - - - - - - -
- - - - - - - - - - - - - - - - - - - - - - 3 - - - - - - - - - - - - - - - - - - - 1 - - - - - - - - - 13 - - - 3 - - - - - - - - - - - - - 2 - - - - 1 - - - - - - - 1 2 - - - - - - - - - - - - - - - - - - - - - - - - - - - - - - - - - - - - - - - - - - - - - - - - - - - - - -
16 33 1 - 2 - - 25 - - - 6 - 1 - 9 2 21 - 23 43 145 21 9 - 10 7 78 28 126 - 10 - - 32 184 125 36 31 - - 60 240 281 37 - 43 10 89 113 200 176 313 155 42 415 537 6 - - 1 64 150 46 104 119 - - 48 39 25 87 24 - 37 - 17 11 - - 13 30 - - - - 2 - 83 18 - 166 8 3 3 34 32 15 28 - - - 12 9 42 46 6 2 - - - 1 4 4 - 11 17 - - - - - 1 - 2 - 2 - - - - - 15 - - - - - 1
- - - - - - - - - - - - - - - - - - - - - - - - - - - - - - - - - - - - - - - - - - - - - - - - - - - - - - - - - - - - - - - - - - - - - - - - - - - - - - - - - - - 1 - - - - - - - - - - - - - - - - - - - - - - - - - - - - - - - - - - - - - - - - - - - - - - - - - - - - - - -
- - - - - - - - - - - - - - - - - - - - - - - - - - 1 - - - - - - - - - - - - - - - - - - - - - - - - - - - - - - - - - - - - - - - - - - - - - - - - - - - - - - - - - - - - - - - - - - - - - - - - - - - - - - - - - - - - - - - - - - - - - - - - - - - - - - - - - - - - - - - -
- 2 - - 5 - - - - - 1 - - - - - - - - 1 - 2 - 1 - - 3 - - 3 - - - - - 4 - 1 - - - 3 9 11 1 - - - 1 - - 7 6 16 - 4 10 - 2 - - - 1 - 7 2 - - - - - - - - 3 2 - 11 - - 10 3 - - - - - - - 1 2 - - - - 1 - - - - 4 1 2 - - - - - - - 2 - - - - - - - - - - - - - - - - - - - - - - - - - - - -
- - - - - - - - - - - - - - - - - - - - - - - - - - - - 1 - - - - - - - 5 1 - - - - 10 - - - 1 - - - - 2 31 - - - 1 - - - - 2 - - 112 21 - - - 1 - 2 - - 11 - - 272 - - - 14 62 - - - - - - - 96 - 77 - 9 159 11 15 4 - 20 - - - 13 22 - - - - - - - - - - - - - - - - - - - - - - - - - 1 - - - - - - -
- - - - - - - - - - - - - - - - - - - - - - - - - - - - - - - - - - - - - - - - - - - - - - - - - - - - - - - - - - - - - - - - - - - - - - - - - - 2 - - - - - 1 - - - - - - - - - - 4 - - - - - - - - - - - - - - - - - - - - - - - - - - - - - - - - - - - - - - - - - - - - - - -
- - - - - - - - - - - - - - - - - - - - - - - - - - - - - - - - - - - - - 1 - - - - - - - - - - - - - - 4 - - - - - - - - - 1 2 1 1 1 - - 3 - 5 1 1 2 - 1 2 - - - 2 - - 1 - - - - 2 - - - - 1 7 12 4 8 - - 2 1 - - 1 5 - 3 - - - - - - - 2 - - 2 8 - 1 1 2 - 1 1 - - - - - - - - - - -
- - - - - - - - - - - - - - - - - - - - - - - - - - - - - - - - - - - - 3 - - - - - 1 - - - - - - - - 4 - - - 4 - - - - - - - - - - - - - 5 2 13 - - 2 - - 21 - - 1 6 - 109 - - 32 - - 32 - 27 14 - 131 108 26 70 279 63 - - - - - - 6 - - - - - 1 - - - - - - - - - - - - - - - - - - - - - - - - - -
- - - - - - - - - - - - - - - - - - - - - - - - - - - - - - - - - - - - - - - - - - - - - - - - - - - - 2 - - - - - - - - - - - - - - - - - - - - - - - - - - - - - - - - - - - - - - - - - - - - - - - - - - - - - - - - - - - - - - - - - - - - - - - - - - - - - - - - - - - - - -
- - - - - - - - - - - - - - - - - - - - - - - - - - - - - - - - - - - - - - - - - - - - - - - - - - - 1 - - - - - - - - - - - 1 - - - - - - 1 - 2 1 1 5 2 10 - - 14 77 45 84 570 - 151 - 41 54 138 139 284 175 597 800 914 816 1432 357 1 353 114 18 1 6 114 12 9 2 - - - - - 1 - 1 - - 1 - 1 - - - - - - - - - - - - - - - -
- - - - - - - - - - - - - - - - - - - - - - - - - - - - - - - - - - - - - - - - - - - - - - - - - - - - - - - - - 1 - 1 - - - - 3 - - - - - 1 2 - - 1 4 2 - - - - 9 1 11 19 - 17 - 5 1 11 2 11 18 37 56 67 35 77 15 - 92 29 9 2 20 91 41 255 137 29 9 48 247 24 42 125 133 189 450 1266 53 326 616 516 283 797 308 84 48 26 29 89 47 42 23 9 27 98
7 20 4 7 - 11 - - - - 2 5 - - 9 12 17 21 - 2 48 69 94 29 17 59 26 28 64 47 - 1 - - 31 43 36 57 52 9 17 62 200 161 145 1 25 148 13 161 187 190 988 190 255 80 22 33 2 13 16 31 55 159 311 187 133 10 119 283 59 242 43 2 30 59 27 2 - - 3 9 4 8 4 - - - - - 2 - 5 - 10 3 8 5 9 - - 3 - - - - 1 - - 1 - - - - - - - 1 1 6 1 2 - - - - - 2 1 - - - 2 - - - - - 1
- - - - - - - - - - - - - - - - - - - - 1 - - - - - - - - - - - - - - - - - - - - - - - - - - - - - - - - - - - - - - - - - - - - - - - - - - - - - - - - - - - - - - - - - - - - - - - - - - - - - - - - - - - - - - - - - - - - - - - - - - - - - - - - - - - - - - - - - - - - - -
- - - - - - - - - - - - - - - - - - - - - - - - - - - - - - - - - - - - - - - - - - - 1 - - - - - - - - - - - - - - - - - - - - - - - - - - - - - - - - - - - - - - - - - - - - - - - - - - - - - - - - - - - - - - - - - - - - - - - - - - - - - - - - - - - - - - - - - - - - - - -
- - - - - - - - - - - - - - - - - - - - - - - - - - - - - - - - - - - - - - - - - - - - - - - - - - - - - - - - - - - - - - - - - - - - - - - - - - - - - - - - - 1 - - 2 - 3 - - - - - - - - - - - - - - - - - - - - - - - - - - - - - - - - - - - - 1 - - - - - - - - - - - - - - -
- - - - - - - - - - - - - - - - - - - - - - - - - - - - - - - - - - - - - - - - - - - - - - - - - - - - - 1 - - - - - - - - - - - - - - - - - - - - - - - - - - - - - - - - - - - - - - - - - - - - - - - - - - - - - - - - - - - - - - - - - - - - - - - - - - - - - - - - - - - - -
- - - - - - - - - - - - - - - - - - - - 1 - - - - - - - - - - - - - 1 - - 2 1 - - 2 - 1 2 - 1 2 - - 1 - 1 - - 1 - - - - 1 1 1 3 - 1 - - 2 1 1 7 3 2 3 6 1 9 - - 2 13 7 10 21 - 30 - 16 24 64 14 5 11 14 8 8 4 3 2 - - - - - - - - - - - - 1 - - - - - - - - - - - - - - - 1 - - - - - - - - - -
2 - - 1 - - - 2 - - - - - - - - - 1 1 - 1 - 4 - - 1 1 5 5 - 1 1 - - - - 2 - 1 - 1 1 4 2 3 - 1 2 - - - - - - - - 2 - 1 - - - - - - - - - - - - - - - - - - - - - - - - - - - - - - - - 1 - - - - - - - - - - - - - - 1 - - - - - - - - - - - - - - - - - - - - - - - - - - - - - - - -
- - - - - - - - - - - - - - - - - - - - - - - - - - - - - - - - - - - - - - - - - - - - - - - - - - - - - - - - - - - - - - - - - - - - - - - - 1 - - - - - - - - 1 - - - - - - 1 - 3 1 - - - 4 2 1 3 - - - - - - - - 1 - 1 - - - - - - - - - - - - - - - - - - - - - - - - - - - - -
- - - - - - - - - - - 1 - - 1 1 - - - - - - - - - - - - - 1 - - - - - - - - - - - - - 1 - - - - - - - - - - - - - - - - - - - - - - - - - - - - - - - - - - - - - - - - - - - - - - - - - - - - - - - - - - - - - - - - - - - - - - - - - - - - - - - - - - - - - - - - - - - - - - -
1 - - - - 2 - 2 2 - - - - 1 2 4 5 11 - - 8 5 30 10 19 5 - 12 41 27 - 10 - - 2 25 46 112 22 1 3 5 80 57 62 - 15 19 8 24 25 41 138 10 11 6 12 16 1 4 1 7 8 34 25 7 5 4 29 42 15 24 11 2 8 19 9 - - - 7 6 6 7 16 - 30 - 7 6 10 15 12 14 21 27 34 39 40 - - 7 3 - - - 3 - 1 - - - - - - - - - - - - - - - - - - - - - - - - - - - - - -
111 183 22 56 29 110 - 86 24 - 25 2 - 7 88 75 209 446 1 - 286 196 433 386 202 57 3 132 856 338 1 57 - - 51 602 887 516 682 - 4 164 1445 1036 944 - 214 238 94 257 519 1164 1508 14 140 23 32 69 25 9 10 53 114 521 783 203 184 14 133 278 75 341 57 14 68 88 44 2 - - 3 35 3 1 31 - 15 - 15 3 10 16 5 4 17 11 21 7 14 2 - 4 4 - - - 3 - 1 2 - - - - - - - - - 1 - - - - 1 - - - 1 - - - 1 1 - 1 1 1 -
- - - - - - - - - - - - - - - - - - - - - - - - - - - - - - - - - - - - - - - - - - - - - - - - - - - - - - - - - - - - - - - - - - - - - - - - - - - 1 - - - - - - - - - - - - - - - - - - - - - - - - - - - - - - - - - - - - - - - - - - - - - - - - - - - - - - - - - - - - - - -
- - - - - - - - - - - - - - - - - - - - - - - - - - - - - - - - - - - - - - - - - - - - - - - - - - - - - - - - - - - - - - - - - - - - 1 - - - - - - - - - - - - - - - - - - - - - 1 - - - - - - - - - - - - - - - - - - - - - - - - - - - - - - - - - - - - - - - - - - - - - - - -
- - - - - - - - - - - - - - - - - - - - - - - - - - - - - - - - - - - - - - - - - - - 1 - - - - - - - - - - - 2 2 - - - - - - - - 1 - - - - - - 1 - 1 - - 5 - - - 2 4 2 10 - 3 - 6 4 3 6 1 1 5 2 1 5 3 - - - - - - - - - - - - - 1 - - - - - - - - - - - - - - - - - - - - - - - - - -
1 - - - - - - 2 - - - - - - - - - - - - 1 - - - - - - - - 1 - 1 - - 1 2 3 2 4 - - 1 8 5 12 - 3 4 2 - 6 13 26 7 5 9 1 14 - - 3 3 1 5 28 9 3 3 20 3 7 7 4 3 1 3 1 - - - 1 3 1 - 2 - - - 6 - 1 1 3 - 5 3 3 2 4 - - 1 - - - - - 2 - - - 1 - - - - - - - - - - - - - - - - - - - - - - - - 1 - -
- - - - - - - - - - - - - - - - - - - - - - - - - - - - - 1 - - - - - 1 - 1 - - 1 3 2 4 4 - 1 - - - 2 3 5 - 2 1 1 1 - - - - - 1 2 1 1 1 - 1 - 3 1 - - - - - - - - 1 - - 1 - - - - - - - - - - - - - - - - - - - - - - - - - - - - - - - - - - - - - - - - - - - - - - - - - - - - - -
- - - - - - - - - - - - - - - - - - - - - - - - - - - - - - - - - - - - - - - - - - - - - - - - - - - 1 - - - - - 1 - - 1 - - - - 1 3 - 1 1 4 - - 2 1 7 1 - - - 1 - 1 1 4 - 2 - - - 1 1 - - - - - - - - - - - - - - - - - - - - - - - - - - - - - - - - - - - - - - - - - - - - - - -
- - - - - - - 1 - - - - - - - - - - - - - 1 - - - - - - - - - - - - - - - - 1 - - - - - - - - - - - - - - - - 1 - - - - - - - - - - - - 1 - - - - - - - - - - - - - - - - - - - 2 - - - - - - - - - - - - - - - - - - - - - - - - - - - - - - - - - - - - - - - - - - - - - - - - - -

 Autres espèces
 
Total 
  Rapace indéterminé (Falconiformes sp.)81 
  Aigle indéterminé (Aquila) (Aquila sp.)1 
  Faucon indéterminé (Falco sp.)15 
  Grue cendrée (Grus grus)49 
  Limicole indéterminé (Charadriiformes sp. (magna))7 
  Pluvier doré (Pluvialis apricaria)1 
  Vanneau huppé (Vanellus vanellus)123 
  Bécassine des marais (Gallinago gallinago)2 
  Courlis corlieu (Numenius phaeopus)2 
  Courlis cendré (Numenius arquata)18 
  Chevalier gambette (Tringa totanus)1 
  Chevalier aboyeur (Tringa nebularia)3 
  Chevalier sylvain (Tringa glareola)5 
  Labbe indéterminé (Stercorarius sp.)1 
  Mouette mélanocéphale (Larus melanocephalus)2 
  Mouette rieuse (Chroicocephalus ridibundus)482 
  Goéland brun (Larus fuscus)1 
  Goéland leucophée (Larus michahellis)226 
  Sterne caspienne (Hydroprogne caspia)2 
  Pigeon biset domestique (Columba livia f. domestica)1 
  Pigeon colombin (Columba oenas)1403 
  Pigeon ramier (Columba palumbus)24945 
  Martinet noir (Apus apus)7209 
  Martinet à ventre blanc (Apus melba)6 
  Guêpier d'Europe (Merops apiaster)3 
  Pic noir (Dryocopus martius)1 
  Alouette lulu (Lullula arborea)1272 
  Alouette des champs (Alauda arvensis)7123 
  Hirondelle indéterminée (Hirundinidae sp.)25024 
  Hirondelle de rivage (Riparia riparia)106 
  Hirondelle de rochers (Ptyonoprogne rupestris)1 
  Hirondelle rustique (Hirundo rustica)9463 
  Hirondelle de fenêtre (Delichon urbicum)8578 
  Pipit rousseline (Anthus campestris)2 
  Pipit des arbres (Anthus trivialis)47 
  Pipit farlouse (Anthus pratensis)374 
  Bergeronnette printanière (Motacilla flava)290 
  Bergeronnette des ruisseaux (Motacilla cinerea)12 
  Bergeronnette grise (Motacilla alba)464 
  Accenteur mouchet (Prunella modularis)2 
  Merle / Grive indéterminé (Turdus sp.)1515 
  Rougequeue noir (Phoenicurus ochruros)1 
  Merle noir (Turdus merula)11 
  Grive litorne (Turdus pilaris)52 
  Grive musicienne (Turdus philomelos)567 
  Grive mauvis (Turdus iliacus)22 
  Grive draine (Turdus viscivorus)20 
  Cisticole des joncs (Cisticola juncidis)1 
  Roitelet huppé (Regulus regulus)1 
  Mésange à longue queue (Aegithalos caudatus)11 
  Mésange noire (Periparus ater)3 
  Mésange bleue (Cyanistes caeruleus)496 
  Mésange charbonnière (Parus major)53 
  Tichodrome échelette (Tichodroma muraria)1 
  Rémiz penduline (Remiz pendulinus)1 
  Geai des chênes (Garrulus glandarius)9 
  Cassenoix moucheté (Nucifraga caryocatactes)2 
  Choucas des tours (Corvus monedula)461 
  Corbeau freux (Corvus frugilegus)1260 
  Corneille noire (Corvus corone)25 
  Étourneau sansonnet (Sturnus vulgaris)17286 
  Passereau indéterminé (Passeriformes sp.)244115 
  Pinson des arbres (Fringilla coelebs)4667 
  Pinson du Nord (Fringilla montifringilla)248 
  Serin cini (Serinus serinus)18 
  Verdier d'Europe (Carduelis chloris)11 
  Chardonneret élégant (Carduelis carduelis)177 
  Tarin des aulnes (Carduelis spinus)507 
  Linotte mélodieuse (Carduelis cannabina)80 
  Sizerin cabaret (Carduelis flammea cabaret)1 
  Bec-croisé des sapins (Loxia curvirostra)2 
  Grosbec casse-noyaux (Coccothraustes coccothraustes)50 
  Bruant jaune (Emberiza citrinella)17 
  Bruant des roseaux (Emberiza schoeniclus)4 

30 novembre
 Durée : 04h30 

29 novembre
 Durée : 06h00 

28 novembre
 Durée : 04h30 

27 novembre
 Durée : 02h30 

26 novembre
 Durée : 05h00 

25 novembre
 Durée : 05h45 

24 novembre
 Durée : 00h00 

23 novembre
 Durée : 05h00 

22 novembre
 Durée : 02h00 

21 novembre
 Durée : 00h00 

20 novembre
 Durée : 05h00 

19 novembre
 Durée : 05h30 

18 novembre
 Durée : 00h00 

17 novembre
 Durée : 05h00 

16 novembre
 Durée : 04h30 

15 novembre
 Durée : 06h00 

14 novembre
 Durée : 06h20 

13 novembre
 Durée : 06h15 

12 novembre
 Durée : 04h45 

11 novembre
 Durée : 02h30 

10 novembre
 Durée : 07h00 

9 novembre
 Durée : 06h45 

8 novembre
 Durée : 06h30 

7 novembre
 Durée : 06h15 

6 novembre
 Durée : 06h30 

5 novembre
 Durée : 06h30 

4 novembre
 Durée : 06h00 

3 novembre
 Durée : 07h00 

2 novembre
 Durée : 08h00 

1 novembre
 Durée : 06h30 

31 octobre
 Durée : 03h00 

30 octobre
 Durée : 04h30 

29 octobre
 Durée : 00h00 

28 octobre
 Durée : 00h00 

27 octobre
 Durée : 04h45 

26 octobre
 Durée : 09h00 

25 octobre
 Durée : 08h30 

24 octobre
 Durée : 08h15 

23 octobre
 Durée : 07h00 

22 octobre
 Durée : 03h00 

21 octobre
 Durée : 06h45 

20 octobre
 Durée : 07h30 

19 octobre
 Durée : 10h15 

18 octobre
 Durée : 10h00 

17 octobre
 Durée : 08h45 

16 octobre
 Durée : 03h30 

15 octobre
 Durée : 08h45 

14 octobre
 Durée : 09h30 

13 octobre
 Durée : 08h00 

12 octobre
 Durée : 09h10 

11 octobre
 Durée : 09h55 

10 octobre
 Durée : 10h30 

9 octobre
 Durée : 10h35 

8 octobre
 Durée : 07h00 

7 octobre
 Durée : 07h45 

6 octobre
 Durée : 09h15 

5 octobre
 Durée : 09h15 

4 octobre
 Durée : 09h00 

3 octobre
 Durée : 07h00 

2 octobre
 Durée : 07h00 

1 octobre
 Durée : 07h00 

30 septembre
 Durée : 07h00 

29 septembre
 Durée : 07h30 

28 septembre
 Durée : 09h00 

27 septembre
 Durée : 09h45 

26 septembre
 Durée : 08h00 

25 septembre
 Durée : 07h00 

24 septembre
 Durée : 07h15 

23 septembre
 Durée : 08h10 

22 septembre
 Durée : 08h15 

21 septembre
 Durée : 08h45 

20 septembre
 Durée : 10h30 

19 septembre
 Durée : 07h00 

18 septembre
 Durée : 07h00 

17 septembre
 Durée : 10h00 

16 septembre
 Durée : 08h30 

15 septembre
 Durée : 08h00 

14 septembre
 Durée : 07h35 

13 septembre
 Durée : 00h00 

12 septembre
 Durée : 00h00 

11 septembre
 Durée : 08h00 

10 septembre
 Durée : 09h00 

9 septembre
 Durée : 08h30 

8 septembre
 Durée : 08h30 

7 septembre
 Durée : 09h00 

6 septembre
 Durée : 00h00 

5 septembre
 Durée : 08h30 

4 septembre
 Durée : 00h00 

3 septembre
 Durée : 07h00 

2 septembre
 Durée : 09h15 

1 septembre
 Durée : 11h30 

31 août
 Durée : 09h25 

30 août
 Durée : 11h10 

29 août
 Durée : 09h00 

28 août
 Durée : 10h45 

27 août
 Durée : 10h30 

26 août
 Durée : 10h30 

25 août
 Durée : 11h20 

24 août
 Durée : 11h15 

23 août
 Durée : 09h00 

22 août
 Durée : 03h45 

21 août
 Durée : 09h00 

20 août
 Durée : 07h30 

19 août
 Durée : 07h30 

18 août
 Durée : 09h30 

17 août
 Durée : 09h30 

16 août
 Durée : 08h30 

15 août
 Durée : 09h00 

14 août
 Durée : 07h35 

13 août
 Durée : 08h15 

12 août
 Durée : 03h30 

11 août
 Durée : 04h00 

10 août
 Durée : 08h30 

9 août
 Durée : 08h00 

8 août
 Durée : 07h30 

7 août
 Durée : 07h15 

6 août
 Durée : 07h00 

5 août
 Durée : 07h30 

4 août
 Durée : 07h30 

3 août
 Durée : 09h00 

2 août
 Durée : 09h15 

1 août
 Durée : 07h30 

31 juillet
 Durée : 07h15 

30 juillet
 Durée : 07h15 

29 juillet
 Durée : 07h30 

28 juillet
 Durée : 07h20 

27 juillet
 Durée : 07h15 

26 juillet
 Durée : 07h15 

25 juillet
 Durée : 07h30 

24 juillet
 Durée : 07h00 

23 juillet
 Durée : 07h00 

22 juillet
 Durée : 07h00 

21 juillet
 Durée : 07h00 

20 juillet
 Durée : 04h45 

19 juillet
 Durée : 09h00 

18 juillet
 Durée : 07h30 

17 juillet
 Durée : 07h00 

16 juillet
 Durée : 07h00 

15 juillet
 Durée : 07h10 
------------------------------------------------1----11--1-------1---2-13----44---2--3-4--531131511----4----6-2-----11-----------------------
------------------------------------------------------------------------------------------------1------------------------------------------
--------------------------------------------1--1---21--1-1----1--11--1--1--11----1---------------------------------------------------------
---------------37-----------3---------9-----------------------------------------------------------------------------------------------------
-------------------------1-------------------------1------------41-------------------------------------------------------------------------
----------------------------------------------------------------1--------------------------------------------------------------------------
---------------------12--4335--17------15---------5----5---------------------------------------------------------------------------------------
-------------------------------------------------------------1---------------------------------1-------------------------------------------
-------------------------------------------------------------------------------------------------------2-----------------------------------
----------------------------1-----------------------------------3-----2--2---------------1-16-1-1------------------------------------------
-------------------------------------------------------------------------------------------------1-----------------------------------------
---------------------------------------------------------------1------------------------1--1-----------------------------------------------
--------------------------------------------------------------------------------------------------2------3---------------------------------
---------------------------------------------------------1---------------------------------------------------------------------------------
---------------------------------------------------1------------------------------------------------------------------------------1--------
----------------------------30-------------40--------59----3---------------------------------10---------------------------------3122--82-105--18--82--
-----------------------1-------------------------------------------------------------------------------------------------------------------
-432---2--1-----56--45---4--221-7--1----2---9----11-----182826--8-1-45----12-5--------71----1--------------2-1-2--1-------2--1----32----510-6-4-
--------------------------------------------------------------------------------------------2----------------------------------------------
-----------------------------------------------------------------1-------------------------------------------------------------------------
---------------------------1022-5----115---464246-3410181744302705631-8010----2435339932--1112984016-----------------------------------------------------------------
----------------------6--168122223631373--851699308158-17621073906310-130635485963112832780559128003125163922--8-634445------------------------------------------------------------------------
-------------------------------------------------------1----------------3--2227---1--21-29-79253----3083-31291089160-752-27-182233-317016430--6260-2507060-270101720285320237080600
-----------------------------------------------------------------------1---------------------------------4--------------1------------------
--------------------------------------------------------------------------------------------3----------------------------------------------
--------------------------------------------------------1----------------------------------------------------------------------------------
---------------------------10342-11---1--40-1187288111-263035161516120912941286952136------------------------------------------------------------------------------
--------------215----5521503319142013741--15--603151972--11103492539720-741011451187796101-2142-----1-12--------------------------------------------------------------------------
--------------------------------------3---------------505001730120-70261800359025--22040809502708019003130150700600----2810240120530-2100-6025078540-1402001270401000----100-----------------10--10-50-------------
---------------------------------------------------------1-------------4-7-1----11--9-6--------412------1---47-----3------------------------9
---------------------------------------------------------1---------------------------------------------------------------------------------
-------------------------------8----3-8---393--3--24-14325029664022615015610048592140601203013050804206001305080----13096030-270-20-1013035190720500102674921510-------------------6-----17-10-------------
------------------------------------------------3------3315152825-55350393150560501087045021520004070120200----15030206-80-30-130510-22145104001000--40300---50-------16-15--40----40-------------
---------------------------------------------------------------------------------------------1----1----------------------------------------
-----------------------------------------------1--22-3321----2---2-----3--------9--52---13-31-----2----------------------------------------
---------------------34---------40---9132--521336511047-184-15461551-2321----------------------------------------------------------------------------
--------------------------------------------------521-4-15----42--6-42--5-3330---13133-29---629121424115161919-----------------------------------------
--------------------------1----------------3-----------5-11---------------------------1----------------------------------------------------
---------------------32--6-----5---21312--1815641213-33185490253155-7-4-12-6-----------------------------------------------------------------------------
--------------------------------------------------2----------------------------------------------------------------------------------------
----------------7------------5-----------71115-------3243686-3812----4417157--------------------------------------------------------------------------
-----------------------------------------------------------1-------------------------------------------------------------------------------
------------------------------------------5-------6----------------------------------------------------------------------------------------
--19----------33-----------------------------------------------------------------------------------------------------------------------------
-----------------------------------------648127----5----3--5----55-2010-------------------------------------------------------------------------
---------------------2----9-------7---4----------------------------------------------------------------------------------------------------
-------------------------------5----------11------3--1-81----------------------------------------------------------------------------------
-----------------------------------------------------------------------------------------------------------------------------1-------------
--------------------------------------------------1----------------------------------------------------------------------------------------
-------------------------------------------7-----------4-----------------------------------------------------------------------------------
------------------------------------------------3------------------------------------------------------------------------------------------
---------------1-3--15----26-133--36---193946--4229353-2146162151223345-----12------------------------------------------------------------------------------
----------------------------------------914---202-----13-4-----------------------------------------------------------------------------------
---------------------------1-------