Visiteur Anonyme
HAUTE-SAVOIE
Accueil
 
Partenaires
 
La Faune d'Auvergne-Rhône-Alpes
Consulter les observations
  Les observations
    - 
Les 2 derniers jours
    - 
Les 5 derniers jours
    - 
Les 15 derniers jours
     Synthèse migration
       - 
Le Hucel
       - 
Défilé de l'Ecluse
     Données et analyses
       - 
Pouillot fitis 2021
       - 
Grive mauvis 20-21
       - 
Hirondelle rustique 2021
       - 
Hirondelle de fenêtre 2021
       - 
Bouscarle de Cetti 2021
       - 
Milan royal 2021
       - 
Pic mar 19-21
       - 
Castor d'Eurasie 17-21
       - 
Souris grise (M.m. domesticus) 17-21
       - 
Citron 2021
       - 
Sonneur à ventre jaune 11-21
       - 
Grenouille agile 18-21
       - 
Grenouille rousse 2021
       - 
Lézard des souches 11-21
       - 
Gypaète barbu 20-21
       - 
Vautour moine 2021
       - 
Vautour fauve 2021
 - 
Les galeries
Information
  Aide
    - 
Espèces à publication limitée
    - 
Explication des symboles
    - 
les FAQs
  Statistiques
La faune de Haute-Savoie
 - 
Plan Vigilance Avifaune 74
 - 
Carte dynamique de la faune de Haute-Savoie
 - 
Carte dynamique des oiseaux nicheurs de Haute-Savoie
Vie associative
Conservation
Suivis et Expertises
Sensibilisation
Groupes faunistiques
Utilisation du site
Offres d'emploi
Les liens

La LPO est le reprsentant
pour la FRANCE de


Synthèse migration 1996 : Défilé de l'Ecluse - site suivi migration (Chevrier)

Date : du jeudi 11 juillet 1996 au vendredi 6 décembre 1996

Nombre de jour de suivi : 130
Nombre d'heures de suivi : 978h45

Nombre d'oiseaux : 132644
Nombre de rapaces : 26800



 Cigognes et rapaces
 
Total 
  Oie cendrée (Anser anser)72 
  Harle bièvre (Mergus merganser)4 
  Grand Cormoran (Phalacrocorax carbo)3449 
  Grande Aigrette (Casmerodius albus)1 
  Héron cendré (Ardea cinerea)194 
  Héron pourpré (Ardea purpurea)15 
  Cigogne noire (Ciconia nigra)61 
  Cigogne blanche (Ciconia ciconia)83 
 Afficher phénologie  Bondrée apivore (Pernis apivorus)3639 
 Afficher phénologie  Milan noir (Milvus migrans)5861 
 Afficher phénologie  Milan royal (Milvus milvus)1292 
 Afficher phénologie  Circaète Jean-le-Blanc (Circaetus gallicus)1 
 Afficher phénologie  Busard indéterminé (Circus sp.)6 
 Afficher phénologie  Busard des roseaux (Circus aeruginosus)360 
 Afficher phénologie  Busard Saint-Martin (Circus cyaneus)150 
 Afficher phénologie  Busard cendré (Circus pygargus)19 
 Afficher phénologie  Autour des palombes (Accipiter gentilis)6 
 Afficher phénologie  Épervier d'Europe (Accipiter nisus)1704 
 Afficher phénologie  Buse variable (Buteo buteo)13288 
 Afficher phénologie  Aigle royal (Aquila chrysaetos)1 
 Afficher phénologie  Aigle botté (Aquila pennata)1 
 Afficher phénologie  Balbuzard pêcheur (Pandion haliaetus)60 
 Afficher phénologie  Faucon crécerelle (Falco tinnunculus)296 
 Afficher phénologie  Faucon kobez (Falco vespertinus)2 
 Afficher phénologie  Faucon émerillon (Falco columbarius)64 
 Afficher phénologie  Faucon hobereau (Falco subbuteo)48 
 Afficher phénologie  Faucon lanier (Falco biarmicus)1 
 Afficher phénologie  Faucon pèlerin (Falco peregrinus)1 

6 décembre
 Durée : 03h30 

5 décembre
 Durée : 05h00 

4 décembre
 Durée : 00h00 

3 décembre
 Durée : 02h00 

2 décembre
 Durée : 04h00 

1 décembre
 Durée : 06h00 

30 novembre
 Durée : 00h00 

29 novembre
 Durée : 00h00 

28 novembre
 Durée : 00h00 

27 novembre
 Durée : 00h00 

26 novembre
 Durée : 00h00 

25 novembre
 Durée : 00h00 

24 novembre
 Durée : 00h00 

23 novembre
 Durée : 00h00 

22 novembre
 Durée : 05h30 

21 novembre
 Durée : 00h00 

20 novembre
 Durée : 00h00 

19 novembre
 Durée : 03h00 

18 novembre
 Durée : 00h00 

17 novembre
 Durée : 05h00 

16 novembre
 Durée : 06h00 

15 novembre
 Durée : 06h30 

14 novembre
 Durée : 07h30 

13 novembre
 Durée : 00h00 

12 novembre
 Durée : 04h30 

11 novembre
 Durée : 06h30 

10 novembre
 Durée : 07h30 

9 novembre
 Durée : 07h30 

8 novembre
 Durée : 07h30 

7 novembre
 Durée : 01h45 

6 novembre
 Durée : 07h40 

5 novembre
 Durée : 00h00 

4 novembre
 Durée : 07h30 

3 novembre
 Durée : 08h40 

2 novembre
 Durée : 09h00 

1 novembre
 Durée : 08h15 

31 octobre
 Durée : 09h15 

30 octobre
 Durée : 09h30 

29 octobre
 Durée : 05h45 

28 octobre
 Durée : 09h45 

27 octobre
 Durée : 09h45 

26 octobre
 Durée : 09h45 

25 octobre
 Durée : 09h45 

24 octobre
 Durée : 09h45 

23 octobre
 Durée : 10h00 

22 octobre
 Durée : 10h00 

21 octobre
 Durée : 02h45 

20 octobre
 Durée : 09h45 

19 octobre
 Durée : 08h30 

18 octobre
 Durée : 09h45 

17 octobre
 Durée : 08h00 

16 octobre
 Durée : 00h00 

15 octobre
 Durée : 08h45 

14 octobre
 Durée : 09h30 

13 octobre
 Durée : 10h10 

12 octobre
 Durée : 10h00 

11 octobre
 Durée : 04h00 

10 octobre
 Durée : 10h00 

9 octobre
 Durée : 08h00 

8 octobre
 Durée : 07h00 

7 octobre
 Durée : 09h30 

6 octobre
 Durée : 10h45 

5 octobre
 Durée : 03h30 

4 octobre
 Durée : 10h15 

3 octobre
 Durée : 10h30 

2 octobre
 Durée : 08h45 

1 octobre
 Durée : 06h00 

30 septembre
 Durée : 09h30 

29 septembre
 Durée : 10h30 

28 septembre
 Durée : 09h45 

27 septembre
 Durée : 09h30 

26 septembre
 Durée : 09h45 

25 septembre
 Durée : 10h00 

24 septembre
 Durée : 04h00 

23 septembre
 Durée : 08h00 

22 septembre
 Durée : 00h00 

21 septembre
 Durée : 05h45 

20 septembre
 Durée : 06h30 

19 septembre
 Durée : 07h00 

18 septembre
 Durée : 10h00 

17 septembre
 Durée : 10h00 

16 septembre
 Durée : 10h00 

15 septembre
 Durée : 10h30 

14 septembre
 Durée : 09h00 

13 septembre
 Durée : 06h15 

12 septembre
 Durée : 09h00 

11 septembre
 Durée : 08h45 

10 septembre
 Durée : 09h45 

9 septembre
 Durée : 09h15 

8 septembre
 Durée : 09h15 

7 septembre
 Durée : 08h45 

6 septembre
 Durée : 09h15 

5 septembre
 Durée : 10h00 

4 septembre
 Durée : 09h15 

3 septembre
 Durée : 09h15 

2 septembre
 Durée : 10h45 

1 septembre
 Durée : 11h15 

31 août
 Durée : 10h15 

30 août
 Durée : 09h00 

29 août
 Durée : 10h00 

28 août
 Durée : 06h00 

27 août
 Durée : 05h00 

26 août
 Durée : 04h15 

25 août
 Durée : 08h45 

24 août
 Durée : 08h45 

23 août
 Durée : 08h00 

22 août
 Durée : 07h00 

21 août
 Durée : 00h00 

20 août
 Durée : 08h30 

19 août
 Durée : 09h00 

18 août
 Durée : 07h00 

17 août
 Durée : 07h00 

16 août
 Durée : 06h30 

15 août
 Durée : 07h30 

14 août
 Durée : 06h15 

13 août
 Durée : 05h00 

12 août
 Durée : 04h45 

11 août
 Durée : 00h00 

10 août
 Durée : 05h00 

9 août
 Durée : 07h30 

8 août
 Durée : 09h45 

7 août
 Durée : 07h00 

6 août
 Durée : 06h30 

5 août
 Durée : 05h00 

4 août
 Durée : 09h15 

3 août
 Durée : 06h45 

2 août
 Durée : 06h00 

1 août
 Durée : 06h30 

31 juillet
 Durée : 08h30 

30 juillet
 Durée : 07h00 

29 juillet
 Durée : 07h15 

28 juillet
 Durée : 08h00 

27 juillet
 Durée : 06h00 

26 juillet
 Durée : 07h15 

25 juillet
 Durée : 07h15 

24 juillet
 Durée : 04h45 

23 juillet
 Durée : 03h30 

22 juillet
 Durée : 06h00 

21 juillet
 Durée : 08h00 

20 juillet
 Durée : 06h00 

19 juillet
 Durée : 06h00 

18 juillet
 Durée : 05h45 

17 juillet
 Durée : 06h00 

16 juillet
 Durée : 05h30 

15 juillet
 Durée : 06h00 

14 juillet
 Durée : 05h30 

13 juillet
 Durée : 05h00 

12 juillet
 Durée : 00h00 

11 juillet
 Durée : 02h15 
- - - - - - - - - - - - - - - - - 6 - - - - - - - - 13 - - - - - - - - - - - - - 15 - - - - - - - - - - - - 32 - - - - - - - - - - - - - - - - 6 - - - - - - - - - - - - - - - - - - - - - - - - - - - - - - - - - - - - - - - - - - - - - - - - - - - - - - - - - - - - - - - - - - - - - - - - - - - - - -
- - - - - - - - - - - - - - - - - - - - - - - - - - - - - - - - - - 4 - - - - - - - - - - - - - - - - - - - - - - - - - - - - - - - - - - - - - - - - - - - - - - - - - - - - - - - - - - - - - - - - - - - - - - - - - - - - - - - - - - - - - - - - - - - - - - - - - - - - - - - - - - - - - - - - - -
- 6 - 12 5 - - - - - - - - - - - - 36 - 25 37 15 22 - 17 3 125 44 16 - 40 - 9 12 9 8 20 13 - 95 412 134 74 101 165 68 - 79 1 16 6 - 15 55 165 180 37 36 - - 29 205 6 133 21 16 64 107 102 42 109 46 33 2 2 - 12 1 12 42 90 40 52 - 14 - 13 26 15 14 - 3 1 10 6 - 18 - - 8 - - - 1 2 - 1 - 5 1 9 - - - - 1 - - - 1 - - - - - - 9 2 1 1 3 - 1 - - - - - - - 3 - 1 - - - - - -
- - - - - - - - - - - - - - - - - - - - - - - - - - - - - - - - - - - - - - - - - - - - - - - - - - - - - - - - - - - - - - - - - - - - - - - - - - - - - - - - - - - - - - - - - - - - - - - - - - - - - - - - - - - - - - - - - - - 1 - - - - - - - - - - - - - - - - - - - - - - - - - - - - - - - - -
- - - - - - - - - - - - - - - - - - - - - - - - - - - - - - - - - - - - 2 6 - - - - - 3 - - - - - - - - - 1 4 5 2 - - - 6 - - - - 5 - 9 3 - - - - - - - 26 5 - 11 16 11 - - - - - - - - - - 24 17 1 12 2 3 - - - 1 - - - - 2 - 5 - - - - - - 1 - - - - - 5 - - - - - - - - - - - - - - - - - - - - - - - 6 - - -
- - - - - - - - - - - - - - - - - - - - - - 1 - - - - - - - - - - - - - - - - - - - - - - - - - - - - - - - - - - - - - - - - - - - - - - - 2 3 3 - 2 - - - - - - - - - - - - - - - - - - - - - - - - - - - - - - - - - - - - - - - - 4 - - - - - - - - - - - - - - - - - - - - - - - - - - - - - - - - -
- - - - - - - - - - - - - - - - - - - - - - - - - - - - - - - - - - - - - - - - - - - - - - - - - - - - 1 - - - - - - - - - - - - 2 - 1 - - 1 6 3 - - - - 5 - 8 9 3 - 2 - - - 3 - - - - 2 - - 4 1 - - 2 - 1 - 2 1 - - - - 4 - - - - - - - - - - - - - - - - - - - - - - - - - - - - - - - - - - - - - - -
- - - - - - - - - - - - - - - - - - - - - - - - - - - - - - - - - - - - - - - - - - - - - - - - - - - - - - - - - - - - - - - - - - - - - - - 3 - - - - - - - - - - - - - 5 - - - - - - 1 1 - - - 2 - - - 3 - 54 11 - - - - 1 1 - - - - - - - - - - - - - - - - - - - - - - - - - - - - - 1 - - - - - - - -
- - - - - - - - - - - - - - - - - - - - - - - - - - - - - - - - - - - - - - - - - - - - - - - - - - - - - - - - - - - - - - - - - - - - - 1 - 2 - - 1 - - 2 - 3 4 12 - - - 2 - 2 3 - 3 5 75 20 28 518 330 711 63 345 108 556 29 280 153 174 70 - 36 36 13 9 5 12 3 7 10 - 1 - 3 - 2 2 - - - - - - - - - - - - - - - - - - - - - - - - -
- - - - - - - - - - - - - - - - - - - - - - - - - - - - - - - - - - - - - - - - - - - - - - - - - - - - - - - - - - - - - - - 1 - - - - - - - 2 - - - - - - - - - 1 1 - - - - 2 1 1 2 1 3 3 3 4 5 10 4 5 6 1 8 8 3 8 4 - 8 14 86 30 129 75 1 13 20 - 77 214 106 39 96 47 546 354 158 173 479 230 856 339 50 336 316 16 48 223 180 75 46 34 50 61 103 73 56 - 17
- - - - - 2 - - - - - - - - 4 - - - - - - - 2 - 4 - 7 6 - - - - - 1 4 8 4 9 3 - 9 2 1 39 10 3 - 19 5 5 13 - 23 19 49 31 34 2 - 1 20 57 - 42 88 62 15 25 30 81 27 323 19 5 11 - - 1 4 20 41 20 20 1 - 5 9 5 6 1 2 1 5 1 - 2 1 1 - - - 1 - - - - - - 2 - - 2 1 4 - - 1 - 1 - 1 - - - - 1 1 1 1 1 - 1 - - 3 - - - - - - - - - - - - - -
- - - - - - - - - - - - - - - - - - - - - - - - - - - - - - - - - - - - - - - - - - - - - - - - - - - - - 1 - - - - - - - - - - - - - - - - - - - - - - - - - - - - - - - - - - - - - - - - - - - - - - - - - - - - - - - - - - - - - - - - - - - - - - - - - - - - - - - - - - - - - - - - - - - - - - -
- - - - - - - - - - - - - - - - - - - - - - - - - - - - - - - - - - - - - - - - - - - - - - - - - - - - - - - - - - - - - - - - - - - - - - - - 1 - - - - - - - - - - - - - - - - - - - 2 - - 1 - 1 - - - - - 1 - - - - - - - - - - - - - - - - - - - - - - - - - - - - - - - - - - - - - - - - - - - - -
- - - - - - - - - - - - - - - - - - - 1 - - 1 - - - 1 - - - - - - - - - 1 - - - - - 1 - - - - - 2 1 - - - 3 5 - 4 1 - - - 7 - 3 1 4 4 2 - 5 2 5 6 9 3 - 8 12 1 5 15 44 8 - 1 3 3 - 2 - 1 8 23 10 22 54 19 7 6 6 7 3 - 3 4 3 - - 2 2 2 - - - - 1 - - - - 1 1 - - - - 1 - - - - - - - - - - - - - - - - - - - - - -
- - - - - 2 - - - - - - - - 4 - - - - - 2 - 12 - 1 1 1 5 6 1 3 - 1 3 4 4 2 6 1 1 9 3 5 2 2 1 - 4 2 1 7 - 25 6 8 - 5 - - - 1 6 - - 2 - 1 - - - - - - - - - - - - - - - - - - - - - - - - - - - - - - - - - - - - - - - - - - - - - - - - - - - - - - - - - - - - - - - - - - - - - - - - - - - - - - - - - -
- - - - - - - - - - - - - - - - - - - - - - - - - - - - - - - - - - - - - - - - - - - - - - - - - - - - - - - - - - - - - - - - - - - - - - - 1 2 1 - - 1 - - - - - - - - - - 1 - - - 2 2 1 1 - - - 2 - - - - - 1 - 1 - 2 - - - - - - - - - - - 1 - - - - - - - - - - - - - - - - - - - - - - - - - - - -
- - - - - - - - - - - - - - - - - - - - - - - - - - - - - - - - - - - 1 - 1 - - - - - - - 1 - - - - - - 1 - - - - - - - - - - - - - - - - - - 1 - - - - - - - - - - - - - - - - - - - - - 1 - - - - - - - - - - - - - - - - - - - - - - - - - - - - - - - - - - - - - - - - - - - - - - - - - - - - - - -
- 1 - - - 2 - - - - - - - - 5 - - - - - 1 3 5 - 3 - 1 47 33 1 20 - 63 58 72 37 71 67 7 10 63 52 61 13 52 29 2 50 4 48 117 - 138 25 37 28 29 3 - 1 26 61 - 20 24 27 4 23 50 39 12 54 5 12 7 - 6 3 1 13 10 13 7 - 2 - 1 - - - - 1 15 2 3 - 2 2 - - - - - - - - - - - - - - - - - - - - - - - - - - - - - - - - - - - - - - - - - - - - - - - - - - -
20 86 - 7 - 364 - - - - - - - - 925 - - 14 - - 2 6 250 - 6 - 1 395 201 1 131 - 262 223 387 119 348 948 60 108 375 284 179 239 289 132 - 183 42 300 890 - 341 159 451 343 176 45 4 4 247 783 28 349 518 70 22 85 218 347 68 551 8 30 38 - 2 32 4 76 172 132 62 - 1 2 7 4 3 11 12 8 54 15 6 8 7 8 - - - - - - - - - - - - - - - - - - - - - - - - - - - - - - - - - - - - - - - - - - - - - - - - - - -
- - - - - - - - - - - - - - 1 - - - - - - - - - - - - - - - - - - - - - - - - - - - - - - - - - - - - - - - - - - - - - - - - - - - - - - - - - - - - - - - - - - - - - - - - - - - - - - - - - - - - - - - - - - - - - - - - - - - - - - - - - - - - - - - - - - - - - - - - - - - - - - - - - - - - - -
- - - - - - - - - - - - - - - - - - - - - - - - - - - - - - - - - - - - - - - - - - - - - - - - - - - - - - - - - - - - - - - - - - - - - - - - - - - - - - - - - - - - - - - - - - - - - - - - - - - - - - - - - - - - - - - - - - - - - - - - - - - - - - 1 - - - - - - - - - - - - - - - - - - - - - -
- - - - - - - - - - - - - - - - - - - - - - - - - - - - - - - - - 1 - - - - - - - - - - 1 - - - 1 - 1 - - - - - - - - - - - - - - - 1 5 - 1 1 2 - 1 4 - 1 - - - 2 11 5 - - - 1 1 - - - 1 1 - - 5 2 1 - 1 1 2 - - 1 1 1 - - - - 1 - - - - 1 - - - - - - - 1 - - - - - - - - - - - - - - - - - - - - - - - -
- - - - - - - - - - - - - - - - - 1 - - - - - - - - - - - - 1 - 1 1 - - 1 - 1 1 4 1 2 1 - 6 - 3 4 4 4 - 1 3 4 7 5 10 - - 9 52 1 6 7 8 - 6 10 22 5 21 15 4 8 - 2 7 - 1 10 17 7 2 1 1 - 2 - - - 4 1 1 - - - - - - - - - - - - - - - - - - - - - - - - - - - - - - - - - - - - - - - - - - - - - - - - - - - - - - -
- - - - - - - - - - - - - - - - - - - - - - - - - - - - - - - - - - - - - - - - - - - - - - - - - - - - - - - - - - - - - - - - - - - - 1 - - 1 - - - - - - - - - - - - - - - - - - - - - - - - - - - - - - - - - - - - - - - - - - - - - - - - - - - - - - - - - - - - - - - - - - - - - - - - - - - - -
- - - - - - - - - - - - - - - - - 1 - - - - - - - 2 - 1 - - 1 - 2 - 2 1 3 2 1 - 2 3 1 - 1 1 - 3 1 1 2 - 4 1 3 - 1 1 - - 5 6 - - - 3 1 - - 1 1 2 - 2 - - 1 - - - - - 1 - - - - - - - - - - - - - - - - - - - - - - - - - - - - - - - - - - - - - - - - - - - - - - - - - - - - - - - - - - - - - - - - - -
- - - - - - - - - - - - - - - - - - - - - - - - - - - - - - - - - - - - - - - - - - - - - - - 2 - 1 - - - - 1 - 1 - - - - 3 - 1 - 2 - 1 1 - - 4 2 5 6 - - 1 - 5 1 5 - - - - - 1 1 - - - 1 1 - - - 1 - 1 - - - - - - - - - - - - - - - - - - - - - - - - - - - - - - - - - - - - - - - - - - - - - - - - -
- - - - - - - - - - - - - - - - - - - - - - - - - - - - - - - - - - - - - - - - - - - - - - - - - - - - - - - - - - - - - - - - - - - - - 1 - - - - - - - - - - - - - - - - - - - - - - - - - - - - - - - - - - - - - - - - - - - - - - - - - - - - - - - - - - - - - - - - - - - - - - - - - - - - - - -
- - - - - - - - - - - - - - - - - - - - - - - - - - - - - - - - - - - - - - - - - - - - - - - - - - - - - 1 - - - - - - - - - - - - - - - - - - - - - - - - - - - - - - - - - - - - - - - - - - - - - - - - - - - - - - - - - - - - - - - - - - - - - - - - - - - - - - - - - - - - - - - - - - - - - - -

 Autres espèces
 
Total 
  Rapace indéterminé (Falconiformes sp.)41 
  Faucon indéterminé (Falco sp.)12 
  Grue cendrée (Grus grus)32 
  Limicole indéterminé (Charadriiformes sp. (magna))50 
  Avocette élégante (Recurvirostra avosetta)1 
  Vanneau huppé (Vanellus vanellus)378 
  Bécassine des marais (Gallinago gallinago)2 
  Courlis corlieu (Numenius phaeopus)6 
  Courlis cendré (Numenius arquata)19 
  Chevalier aboyeur (Tringa nebularia)7 
  Chevalier sylvain (Tringa glareola)1 
  Labbe indéterminé (Stercorarius sp.)8 
  Goéland leucophée (Larus michahellis)468 
  Pigeon colombin (Columba oenas)1251 
  Pigeon ramier (Columba palumbus)68819 
  Martinet noir (Apus apus)1879 
  Martinet à ventre blanc (Apus melba)15 
  Alouette lulu (Lullula arborea)677 
  Alouette des champs (Alauda arvensis)5426 
  Hirondelle indéterminée (Hirundinidae sp.)4677 
  Hirondelle de rochers (Ptyonoprogne rupestris)1 
  Hirondelle rustique (Hirundo rustica)2 
  Bergeronnette printanière (Motacilla flava)26 
  Merle / Grive indéterminé (Turdus sp.)267 
  Grive mauvis (Turdus iliacus)1 
  Mésange noire (Periparus ater)30 
  Mésange bleue (Cyanistes caeruleus)29 
  Tichodrome échelette (Tichodroma muraria)1 
  Geai des chênes (Garrulus glandarius)1120 
  Cassenoix moucheté (Nucifraga caryocatactes)2 
  Choucas des tours (Corvus monedula)1217 
  Corbeau freux (Corvus frugilegus)28 
  Grand Corbeau (Corvus corax)6 
  Étourneau sansonnet (Sturnus vulgaris)15310 
  Passereau indéterminé (Passeriformes sp.)60 
  Pinson du Nord (Fringilla montifringilla)36 
  Tarin des aulnes (Carduelis spinus)10 
  Grosbec casse-noyaux (Coccothraustes coccothraustes)50 

6 décembre
 Durée : 03h30 

5 décembre
 Durée : 05h00 

4 décembre
 Durée : 00h00 

3 décembre
 Durée : 02h00 

2 décembre
 Durée : 04h00 

1 décembre
 Durée : 06h00 

30 novembre
 Durée : 00h00 

29 novembre
 Durée : 00h00 

28 novembre
 Durée : 00h00 

27 novembre
 Durée : 00h00 

26 novembre
 Durée : 00h00 

25 novembre
 Durée : 00h00 

24 novembre
 Durée : 00h00 

23 novembre
 Durée : 00h00 

22 novembre
 Durée : 05h30 

21 novembre
 Durée : 00h00 

20 novembre
 Durée : 00h00 

19 novembre
 Durée : 03h00 

18 novembre
 Durée : 00h00 

17 novembre
 Durée : 05h00 

16 novembre
 Durée : 06h00 

15 novembre
 Durée : 06h30 

14 novembre
 Durée : 07h30 

13 novembre
 Durée : 00h00 

12 novembre
 Durée : 04h30 

11 novembre
 Durée : 06h30 

10 novembre
 Durée : 07h30 

9 novembre
 Durée : 07h30 

8 novembre
 Durée : 07h30 

7 novembre
 Durée : 01h45 

6 novembre
 Durée : 07h40 

5 novembre
 Durée : 00h00 

4 novembre
 Durée : 07h30 

3 novembre
 Durée : 08h40 

2 novembre
 Durée : 09h00 

1 novembre
 Durée : 08h15 

31 octobre
 Durée : 09h15 

30 octobre
 Durée : 09h30 

29 octobre
 Durée : 05h45 

28 octobre
 Durée : 09h45 

27 octobre
 Durée : 09h45 

26 octobre
 Durée : 09h45 

25 octobre
 Durée : 09h45 

24 octobre
 Durée : 09h45 

23 octobre
 Durée : 10h00 

22 octobre
 Durée : 10h00 

21 octobre
 Durée : 02h45 

20 octobre
 Durée : 09h45 

19 octobre
 Durée : 08h30 

18 octobre
 Durée : 09h45 

17 octobre
 Durée : 08h00 

16 octobre
 Durée : 00h00 

15 octobre
 Durée : 08h45 

14 octobre
 Durée : 09h30 

13 octobre
 Durée : 10h10 

12 octobre
 Durée : 10h00 

11 octobre
 Durée : 04h00 

10 octobre
 Durée : 10h00 

9 octobre
 Durée : 08h00 

8 octobre
 Durée : 07h00 

7 octobre
 Durée : 09h30 

6 octobre
 Durée : 10h45 

5 octobre
 Durée : 03h30 

4 octobre
 Durée : 10h15 

3 octobre
 Durée : 10h30 

2 octobre
 Durée : 08h45 

1 octobre
 Durée : 06h00 

30 septembre
 Durée : 09h30 

29 septembre
 Durée : 10h30 

28 septembre
 Durée : 09h45 

27 septembre
 Durée : 09h30 

26 septembre
 Durée : 09h45 

25 septembre
 Durée : 10h00 

24 septembre
 Durée : 04h00 

23 septembre
 Durée : 08h00 

22 septembre
 Durée : 00h00 

21 septembre
 Durée : 05h45 

20 septembre
 Durée : 06h30 

19 septembre
 Durée : 07h00 

18 septembre
 Durée : 10h00 

17 septembre
 Durée : 10h00 

16 septembre
 Durée : 10h00 

15 septembre
 Durée : 10h30 

14 septembre
 Durée : 09h00 

13 septembre
 Durée : 06h15 

12 septembre
 Durée : 09h00 

11 septembre
 Durée : 08h45 

10 septembre
 Durée : 09h45 

9 septembre
 Durée : 09h15 

8 septembre
 Durée : 09h15 

7 septembre
 Durée : 08h45 

6 septembre
 Durée : 09h15 

5 septembre
 Durée : 10h00 

4 septembre
 Durée : 09h15 

3 septembre
 Durée : 09h15 

2 septembre
 Durée : 10h45 

1 septembre
 Durée : 11h15 

31 août
 Durée : 10h15 

30 août
 Durée : 09h00 

29 août
 Durée : 10h00 

28 août
 Durée : 06h00 

27 août
 Durée : 05h00 

26 août
 Durée : 04h15 

25 août
 Durée : 08h45 

24 août
 Durée : 08h45 

23 août
 Durée : 08h00 

22 août
 Durée : 07h00 

21 août
 Durée : 00h00 

20 août
 Durée : 08h30 

19 août
 Durée : 09h00 

18 août
 Durée : 07h00 

17 août
 Durée : 07h00 

16 août
 Durée : 06h30 

15 août
 Durée : 07h30 

14 août
 Durée : 06h15 

13 août
 Durée : 05h00 

12 août
 Durée : 04h45 

11 août
 Durée : 00h00 

10 août
 Durée : 05h00 

9 août
 Durée : 07h30 

8 août
 Durée : 09h45 

7 août
 Durée : 07h00 

6 août
 Durée : 06h30 

5 août
 Durée : 05h00 

4 août
 Durée : 09h15 

3 août
 Durée : 06h45 

2 août
 Durée : 06h00 

1 août
 Durée : 06h30 

31 juillet
 Durée : 08h30 

30 juillet
 Durée : 07h00 

29 juillet
 Durée : 07h15 

28 juillet
 Durée : 08h00 

27 juillet
 Durée : 06h00 

26 juillet
 Durée : 07h15 

25 juillet
 Durée : 07h15 

24 juillet
 Durée : 04h45 

23 juillet
 Durée : 03h30 

22 juillet
 Durée : 06h00 

21 juillet
 Durée : 08h00 

20 juillet
 Durée : 06h00 

19 juillet
 Durée : 06h00 

18 juillet
 Durée : 05h45 

17 juillet
 Durée : 06h00 

16 juillet
 Durée : 05h30 

15 juillet
 Durée : 06h00 

14 juillet
 Durée : 05h30 

13 juillet
 Durée : 05h00 

12 juillet
 Durée : 00h00 

11 juillet
 Durée : 02h15 
---------------------------------1---2------------1---1-1-------21-1--2--2---2---33--11-1-1-131-----------1-------------------------------------------
--------------------------1---------------------------------21----1-1--22---------2------------------------------------------------------------------
----------------------2--30---------------------------------------------------------------------------------------------------------------------------
----------------------------------------1--------------1---1-------------2--1329--------------------------1--------2-----------------------------------
-------------------------------------------------------------------------------------------------------------1---------------------------------------
----------------------80--2829-------------8-1511022---3---13--439---18----------------------------------------------------------------------------------------
-------------------------------------------------------2---------------------------------------------------------------------------------------------
------------------------------------------------------------------------------4--1------------------------------------1------------------------------
----17--------------------------------------1----------------------------1----------------------------------------------------------------------------
----------------------------------------------------------------------------4----------------3-------------------------------------------------------
-----------------------------------------------------------------------1-----------------------------------------------------------------------------
-----------------------------------------------2--------------------1----1---1------------------21---------------------------------------------------
-----------------43---214-2-3374-4--226-4510222-238-310-1-35----2-539-134-5712-3-81--21-1714-1-39--9-311--10--11--6825-2-53-1-11--1211936-32-171---33---2144-2--
-------------------------------------2--9--1451253194-54332425651752106317-646825-2963732591105139-4221419249---------6-20-------------------------------------------------------
--------------------------------15---30110-359268530259128116553019154172821771-5106251731766120782520704939351124755461003126334214543589039847191552662372--3------------------------------------------------------------------------
-------------------------------------------------------------2---1-1-123221--1---------------------1---15-2------1--510385---80-3-1--20-------320---200-10021510-----
----------------------1-----------------------------------------------233-2----------------------------------------4---------------------------------
--------------------------------342524-----446-69-26571-156-123838102661692528---------------------------------------------------------------------------------------
-----------------50-------4295100254549-55635861185941174034449323581463011691341241438020-179310528371115--3010--805------------------------------------------------------------------------------------
-----------------------------------3---1---2--7-823-111-3115785133-3700650--------------------------------------------------------------------------------------
--------------------------------------------------1--------------------------------------------------------------------------------------------------
--------------------------------------------------2--------------------------------------------------------------------------------------------------
-----------------------------------------------------------------------4-------913--------------------------------------------------------------------
---------------------50----7671-------------42--28--------------------------------------------------------------------------------------------------------
----------------------------------1------------------------------------------------------------------------------------------------------------------
----------------------------------------------------------30------------------------------------------------------------------------------------------
---------------------------------------------------------209------------------------------------------------------------------------------------------
--------------------------------------------------------1--------------------------------------------------------------------------------------------
------------------------------------------------8-18-2193856--5----1853226-1822649924------------------------------------------------------------------------------
-----------------------------------------------------------------------------------2-----------------------------------------------------------------
--------------------------------2--636361647423433527142-3342-401204831----14--143--5---------------------------------------------------------------------------------
--------------22----------------------------------------6---------------------------------------------------------------------------------------------
--------------6--------------------------------------------------------------------------------------------------------------------------------------
--------------------------1164002040215-309467410435136560519048723422385890957925-7279-830--10742459732265-41--55-20-50-----------------------------------------------------------------------------------
---60-------------------------------------------------------------------------------------------------------------------------------------------------
-----------------35-------------------------------------------------------1---------------------------------------------------------------------------
-------------------------------------------------------10---------------------------------------------------------------------------------------------
------------------------------------------------50----------------------------------------------------------------------------------------------------

LPO Haute-Savoie
46 route de la Fruitière 74650 Chavanod
Tél. 04 50 27 17 74 haute-savoie@lpo.fr
Permanence les lundis, mardis, jeudis et vendredis de 9h à 12h
Plan
Visionature
VisioNature est un outil développé avec la collaboration du réseau LPO. Grâce aux technologies Internet, débutants, amateurs et professionnels naturalistes, peuvent partager en temps réel leur découverte et ainsi améliorer la connaissance et la protection de la faune

Biolovision Sàrl (Switzerland), 2003-2021