Visiteur Anonyme
HAUTE-SAVOIE
Accueil
 
Partenaires
 
La Faune d'Auvergne-Rhône-Alpes
Consulter les observations
  Les observations
    - 
Les 2 derniers jours
    - 
Les 5 derniers jours
    - 
Les 15 derniers jours
     Synthèse migration
       - 
Le Hucel
       - 
Défilé de l'Ecluse
     Données et analyses
       - 
Pinson du Nord 21-22
       - 
Geai des chênes 21-22
       - 
Grive musicienne 21-22
       - 
Grive mauvis 21-22
       - 
Tarin des aulnes 2021
       - 
Milan royal 2021
       - 
Vulcain 2021
       - 
Pic mar 19-21
       - 
Castor d'Eurasie 17-21
       - 
Souris grise (M.m. domesticus) 17-21
       - 
Sonneur à ventre jaune 11-21
       - 
Grenouille agile 18-21
       - 
Grenouille rousse 2021
       - 
Lézard des souches 11-21
       - 
Grande Aigrette 21-22
       - 
Gypaète barbu 20-21
       - 
Vautour moine 2021
       - 
Vautour fauve 2021
 - 
Les galeries
Information
  Aide
    - 
Espèces à publication limitée
    - 
Explication des symboles
    - 
les FAQs
  Statistiques
La faune de Haute-Savoie
 - 
Plan Vigilance Avifaune 74
 - 
Carte dynamique de la faune de Haute-Savoie
 - 
Carte dynamique des oiseaux nicheurs de Haute-Savoie
Vie associative
Conservation
Suivis et Expertises
Sensibilisation
Groupes faunistiques
Utilisation du site
Offres d'emploi
Les liens

La LPO est le reprsentant
pour la FRANCE de


Synthèse migration 2021 : Défilé de l'Ecluse - site suivi migration (Chevrier)

Date : du dimanche 18 juillet 2021 au vendredi 3 décembre 2021

Nombre de jour de suivi : 12
Nombre d'heures de suivi : 21h00

Nombre d'oiseaux : 379983
Nombre de rapaces : 60716



 Cigognes et rapaces
 
Total 
  Oie cendrée (Anser anser)52 
  Tadorne casarca (Tadorna ferruginea)3 
  Canard pilet (Anas acuta)18 
  Harle bièvre (Mergus merganser)15 
  Grand Cormoran (Phalacrocorax carbo)15750 
  Héron garde-boeufs (Bubulcus ibis)4 
  Grande Aigrette (Casmerodius albus)80 
  Héron cendré (Ardea cinerea)562 
  Héron pourpré (Ardea purpurea)2 
  Cigogne noire (Ciconia nigra)114 
  Cigogne blanche (Ciconia ciconia)4388 
  Spatule blanche (Platalea leucorodia)3 
 Afficher phénologie  Bondrée apivore (Pernis apivorus)4318 
 Afficher phénologie  Élanion blanc (Elanus caeruleus)3 
 Afficher phénologie  Milan noir (Milvus migrans)16418 
 Afficher phénologie  Milan royal (Milvus milvus)18218 
 Afficher phénologie  Pygargue à queue blanche (Haliaeetus albicilla)1 
 Afficher phénologie  Vautour fauve (Gyps fulvus)1 
 Afficher phénologie  Circaète Jean-le-Blanc (Circaetus gallicus)5 
 Afficher phénologie  Busard indéterminé (Circus sp.)2 
 Afficher phénologie  Busard des roseaux (Circus aeruginosus)544 
 Afficher phénologie  Busard Saint-Martin (Circus cyaneus)28 
 Afficher phénologie  Busard pâle (Circus macrourus)3 
 Afficher phénologie  Busard cendré (Circus pygargus)4 
 Afficher phénologie  Épervier d'Europe (Accipiter nisus)1239 
 Afficher phénologie  Buse variable (Buteo buteo)19014 
 Afficher phénologie  Aigle royal (Aquila chrysaetos)3 
 Afficher phénologie  Balbuzard pêcheur (Pandion haliaetus)97 
 Afficher phénologie  Faucon crécerelle (Falco tinnunculus)757 
 Afficher phénologie  Faucon émerillon (Falco columbarius)28 
 Afficher phénologie  Faucon hobereau (Falco subbuteo)31 
 Afficher phénologie  Faucon pèlerin (Falco peregrinus)2 

3 décembre
 Durée : 02h00 

2 décembre
 Durée : 00h00 

1 décembre
 Durée : 00h00 

30 novembre
 Durée : 00h00 

29 novembre
 Durée : 01h00 

28 novembre
 Durée : 00h00 

27 novembre
 Durée : 00h00 

26 novembre
 Durée : 00h00 

25 novembre
 Durée : 00h00 

24 novembre
 Durée : 00h00 

23 novembre
 Durée : 00h00 

22 novembre
 Durée : 00h00 

21 novembre
 Durée : 00h00 

20 novembre
 Durée : 00h00 

19 novembre
 Durée : 00h00 

18 novembre
 Durée : 00h00 

17 novembre
 Durée : 00h00 

16 novembre
 Durée : 00h00 

15 novembre
 Durée : 00h00 

14 novembre
 Durée : 01h00 

13 novembre
 Durée : 00h00 

12 novembre
 Durée : 00h00 

11 novembre
 Durée : 00h45 

10 novembre
 Durée : 00h00 

9 novembre
 Durée : 00h00 

8 novembre
 Durée : 00h00 

7 novembre
 Durée : 00h00 

6 novembre
 Durée : 00h00 

5 novembre
 Durée : 00h00 

4 novembre
 Durée : 00h00 

3 novembre
 Durée : 00h00 

2 novembre
 Durée : 00h00 

1 novembre
 Durée : 00h00 

31 octobre
 Durée : 01h00 

30 octobre
 Durée : 00h00 

29 octobre
 Durée : 00h00 

28 octobre
 Durée : 00h00 

27 octobre
 Durée : 00h00 

26 octobre
 Durée : 00h00 

25 octobre
 Durée : 00h00 

24 octobre
 Durée : 00h00 

23 octobre
 Durée : 11h30 

22 octobre
 Durée : 00h00 

21 octobre
 Durée : 00h00 

20 octobre
 Durée : 00h00 

19 octobre
 Durée : 00h00 

18 octobre
 Durée : 00h00 

17 octobre
 Durée : 00h00 

16 octobre
 Durée : 00h00 

15 octobre
 Durée : 00h00 

14 octobre
 Durée : 00h00 

13 octobre
 Durée : 00h00 

12 octobre
 Durée : 00h00 

11 octobre
 Durée : 00h00 

10 octobre
 Durée : 00h45 

9 octobre
 Durée : 00h00 

8 octobre
 Durée : 00h00 

7 octobre
 Durée : 00h00 

6 octobre
 Durée : 00h00 

5 octobre
 Durée : 00h00 

4 octobre
 Durée : 00h00 

3 octobre
 Durée : 00h00 

2 octobre
 Durée : 00h00 

1 octobre
 Durée : 00h00 

30 septembre
 Durée : 00h00 

29 septembre
 Durée : 00h00 

28 septembre
 Durée : 00h00 

27 septembre
 Durée : 00h00 

26 septembre
 Durée : 00h15 

25 septembre
 Durée : 00h00 

24 septembre
 Durée : 00h00 

23 septembre
 Durée : 00h00 

22 septembre
 Durée : 00h00 

21 septembre
 Durée : 00h00 

20 septembre
 Durée : 00h00 

19 septembre
 Durée : 01h00 

18 septembre
 Durée : 00h00 

17 septembre
 Durée : 00h00 

16 septembre
 Durée : 00h00 

15 septembre
 Durée : 00h00 

14 septembre
 Durée : 00h00 

13 septembre
 Durée : 00h00 

12 septembre
 Durée : 00h00 

11 septembre
 Durée : 00h00 

10 septembre
 Durée : 00h00 

9 septembre
 Durée : 00h00 

8 septembre
 Durée : 00h00 

7 septembre
 Durée : 00h00 

6 septembre
 Durée : 00h00 

5 septembre
 Durée : 00h30 

4 septembre
 Durée : 00h00 

3 septembre
 Durée : 00h00 

2 septembre
 Durée : 00h00 

1 septembre
 Durée : 00h00 

31 août
 Durée : 00h00 

30 août
 Durée : 00h00 

29 août
 Durée : 00h00 

28 août
 Durée : 00h00 

27 août
 Durée : 00h00 

26 août
 Durée : 00h00 

25 août
 Durée : 00h00 

24 août
 Durée : 00h00 

23 août
 Durée : 00h00 

22 août
 Durée : 00h00 

21 août
 Durée : 00h00 

20 août
 Durée : 00h00 

19 août
 Durée : 00h00 

18 août
 Durée : 00h00 

17 août
 Durée : 00h00 

16 août
 Durée : 00h00 

15 août
 Durée : 00h00 

14 août
 Durée : 00h00 

13 août
 Durée : 00h00 

12 août
 Durée : 00h00 

11 août
 Durée : 00h00 

10 août
 Durée : 00h00 

9 août
 Durée : 00h00 

8 août
 Durée : 00h15 

7 août
 Durée : 00h00 

6 août
 Durée : 00h00 

5 août
 Durée : 00h00 

4 août
 Durée : 00h00 

3 août
 Durée : 00h00 

2 août
 Durée : 00h00 

1 août
 Durée : 01h00 

31 juillet
 Durée : 00h00 

30 juillet
 Durée : 00h00 

29 juillet
 Durée : 00h00 

28 juillet
 Durée : 00h00 

27 juillet
 Durée : 00h00 

26 juillet
 Durée : 00h00 

25 juillet
 Durée : 00h00 

24 juillet
 Durée : 00h00 

23 juillet
 Durée : 00h00 

22 juillet
 Durée : 00h00 

21 juillet
 Durée : 00h00 

20 juillet
 Durée : 00h00 

19 juillet
 Durée : 00h00 

18 juillet
 Durée : 00h00 
- - - - - - - - - - - - - - - - - - - - - - - - - - - - - - - - - - - - - - - - - - - - - - - - - - - - - - 3 18 - - - 13 - - - - - - - - - - - 11 - - - - - - - - - - - - - 7 - - - - - - - - - - - - - - - - - - - - - - - - - - - - - - - - - - - - - - - - - - - - - - - - - - - - -
- - - - - - - - - - - - - - - - - - - - - - - - - - - - - - - - - - - - - - - - - - - - - - - - - - - - - - - - - - - - - - - - - - - - - - - - - - - - - - - - - - - - - - - - - - - - - - - - - - - - - - - - - 3 - - - - - - - - - - - - - - - - - - - - - - - - - - - - - - - - -
- - - - - - - - - - - - - - - - - - - - - - - - - - - - - - - - - - - - - - - - - - - - 6 - - - 2 - - 10 - - - - - - - - - - - - - - - - - - - - - - - - - - - - - - - - - - - - - - - - - - - - - - - - - - - - - - - - - - - - - - - - - - - - - - - - - - - - - - - - - - - - - - -
- - - - - - - - - - - - - - - - - - - - - - 2 - - - - 3 2 - - 1 - - - - - - - - - - - - - - 3 - - - - - - - - 2 1 1 - - - - - - - - - - - - - - - - - - - - - - - - - - - - - - - - - - - - - - - - - - - - - - - - - - - - - - - - - - - - - - - - - - - - - - - - - - - - - - - - -
- - - - 2 - - - - - - - - - 19 35 - - - 2 52 - 25 9 53 12 72 100 32 110 232 58 - 34 - - - 54 216 299 1710 475 7 3 76 143 106 305 137 324 678 82 118 883 820 273 334 819 80 10 15 90 110 578 1530 345 313 61 - 158 998 144 280 313 20 1 605 142 - - 90 22 24 8 1 - 66 140 42 - 3 10 201 142 25 17 5 7 42 78 3 39 21 - 38 16 - 5 6 8 47 10 51 - 19 17 16 - - 2 1 - 4 - - - 3 6 7 - - - - - - 4 - 2 -
- - - - - - - - - - - - - - - - - - - - - - - - - - - - - - - - - - - - - - - - - - - - - - - - - - - - - - - - - - - - - - - - - - - - - - - - - - - - - - - - - - - - - - - - - - - - - - - - - - - - - - - - - - - - - - - 2 2 - - - - - - - - - - - - - - - - - - - - - - - - - -
- - - - - - - - - - - - - - - - - - - - - - - - - - - - - - - - - - - - - - 1 - 3 - - - - - - - - 1 - - - 5 19 - 1 - 1 - - - 3 4 2 4 5 - - - - 4 2 2 - 1 2 3 - - 6 - - - - - - - - 1 1 - 1 - - - - - - - 4 - - - - - - - - - - - - - 1 - - - 3 - - - - - - - - - - - - - - - - - - - -
- - - - - - - - - - - - - - - - - - - - - - - - - - - - - - - - - - - - - 2 1 - 6 2 - 2 - - - 2 - - 1 1 2 - - 2 11 2 14 - - - 7 32 10 24 13 - - - - - 22 17 - 2 4 19 19 9 8 15 - 5 - 2 5 14 2 4 4 - 68 80 1 - - - - - 52 - 3 - - - 4 - - - - - 28 - 2 - 6 - 31 - - - 1 - - - - - - - - 1 - - - - - - -
- - - - - - - - - - - - - - - - - - - - - - - - - - - - - - - - - - - - - - - - - - - - - - - - - - - - - - - - - - - - - - - - - - - - - - - - - - - - - - 1 - - - - - - - - - - - - - - - - - - - - - - - - - - - - - - - - - - - - - - - - - - - - - - - - - - - - 1 - - - - - - -
- - - - - - - - - - - - - - - - - - - - - - - - - - - - - - - - - - - - - - - - - - - - - - 1 - - - - - - - - - - - 1 - - - - - 1 2 5 - - - - 1 7 14 - - 10 3 - - - 1 1 - - - - - 1 6 4 - 4 6 2 - - 1 4 - - 6 3 - 1 - - - - - - - 1 1 17 - 2 2 - - - - - 4 - 2 - - - - - - - - - - - - -
- - - - - - - - - - - - - - - - - - - - - - - - - - - - 1 - - - - - - - - - - - 19 23 2 - - - - - - - - - - 2 13 - - - 13 - - - - 50 29 10 93 21 - 5 4 18 55 64 - - 199 119 29 - - 187 138 - - - 88 161 177 215 309 1 230 387 - - - 25 191 78 45 116 246 53 41 45 260 90 24 - - 22 - 490 - - - - - - - - - - - - - - - - - - - - - - - - -
- - - - - - - - - - - - - - - - - - - - - - - - - - - - - - - - - - - - - - - - - - - - - - - - - - - - - - - - - - - - - - - - - - - - - - - - - - - - - 3 - - - - - - - - - - - - - - - - - - - - - - - - - - - - - - - - - - - - - - - - - - - - - - - - - - - - - - - - - - - - -
- - - - - - - - - - - - - - - - - - - - - - - - - - - - - - - - - - - - - - - - - - - - - - - - - - - - - - - - - - - - - - - 1 - - - - - - - 1 1 2 - - 6 2 - 2 - - 4 2 - - 1 25 23 41 195 142 530 1646 256 2 4 61 816 236 62 174 43 4 - 9 19 1 2 2 1 - - - - - - - - - - - - - - 1 - - - - - - - 1 - - - - -
- - - - - - - - - - - - - - - - - - - - - - - - - - - - - - - - - - - - - - - - - - - - - - - - - - - - - - - - - - - - - - - - 1 - - - - - - - - - - - - - - - - - - - - 1 - - - - - - - - - - - - - - - - - - - - - - - - - - - - - 1 - - - - - - - - - - - - - - - - - - - - - - -
- - - - - - - - - - - - - - - - - - - - - - - - - - - - - - - - - - - - - - - - - - - - - - - - 1 - 1 - - - - 1 1 3 1 - - - - - 1 - 8 - 2 3 - 1 3 4 - 2 5 7 1 1 4 1 7 6 4 - - 5 11 9 24 8 32 72 2 1 7 28 40 21 3 36 41 25 44 78 79 46 230 3 43 163 437 508 818 415 719 7283 100 1311 567 - 164 1315 8 924 94 86 69 71 99 83 23 37 22 74 3 11 58
31 - - - 211 - - - - - - - - 5 106 201 - - 11 148 1 - 15 2 81 402 250 541 741 59 9 7 - 13 - 2 - 116 257 170 552 350 65 39 83 96 115 164 299 262 617 352 376 720 1230 529 860 724 235 113 131 44 124 358 1463 340 1193 152 19 279 321 404 760 600 - 14 351 117 8 24 24 11 41 12 - 2 13 21 22 22 40 1 30 7 - 1 - 5 - 3 - - 2 - 2 4 1 3 9 - - 28 16 16 8 3 1 3 - - - - - - - 2 - - - - - - - 1 1 - - - 1
- - - - - - - - - - - - - - - - - - - - - - - - - - 1 - - - - - - - - - - - - - - - - - - - - - - - - - - - - - - - - - - - - - - - - - - - - - - - - - - - - - - - - - - - - - - - - - - - - - - - - - - - - - - - - - - - - - - - - - - - - - - - - - - - - - - - - - - - - - - - -
- - - - - - - - - - - - - - - - - - - - - - - - - - - 1 - - - - - - - - - - - - - - - - - - - - - - - - - - - - - - - - - - - - - - - - - - - - - - - - - - - - - - - - - - - - - - - - - - - - - - - - - - - - - - - - - - - - - - - - - - - - - - - - - - - - - - - - - - - - - - -
- - - - - - - - - - - - - - - - - - - - - - - - - - - - - - - - - - - - - - - - - - - - - - - - - - - - - - - - - - - - - - - - - - - - - - - - - - - - - 1 - - - - - - - - - - - - - - - - - - - - - - 2 - - - - - - - 2 - - - - - - - - - - - - - - - - - - - - - - - - - - - - - -
- - - - - - - - - - - - - - - - - - - - - - - - - - - - - - - - - - - - - - - - - - - - - - - - - - - - - 1 - - - - - - - - - - - - - - - - - - - - - - - - - - - - - - - - - - - - - 1 - - - - - - - - - - - - - - - - - - - - - - - - - - - - - - - - - - - - - - - - - - - - - - -
- - - - - - - - - - - - - - 1 - - - - - - - - - - - - - - - - - - 1 - - - - 1 - - 2 - - - 1 4 1 - - - 1 2 1 2 - 1 3 4 5 - 1 4 - - 5 7 4 5 6 1 1 14 31 2 - 27 56 10 17 20 5 14 28 11 20 5 21 9 17 31 21 22 48 9 1 - 4 6 8 5 6 1 2 3 - 2 - - - - - 2 1 - - - - - 1 - - - - - - - - - - - - - - - - - - -
- - - - 1 - - - - - - - - - - - - - - - - - - - 3 3 - 2 2 1 - 1 - - - - 1 2 1 - - - 2 - - - - - - - - - 2 - 2 4 - - - 1 - - - - - - - - - - - - - - - - - - - - - - - - - - - - - - - - - - - - - - - - - - - - - - - - - - - - - - - - - - - - - - - - - - - - - - - - - - - - - - -
- - - - - - - - - - - - - - - - - - - - - - - - - - - - - - - - - - - - - - - - - - - - - - - - - - - - - - - - - - 1 - - - - - - - - - - - - - 1 - - - - 1 - - - - - - - - - - - - - - - - - - - - - - - - - - - - - - - - - - - - - - - - - - - - - - - - - - - - - - - - - - - - -
- - - - - - - - - - - - - - - - - - - - - - - - - - - - - - - - - - - - - - - - - - - - - - - - - - - - - - - - - - - - - - - - - - - - - - - - - - - - - - - - - - - - - 1 - - - - 1 - - 1 - - - - - - - - - 1 - - - - - - - - - - - - - - - - - - - - - - - - - - - - - - - - - - -
- - - - 1 - - - - - - - - - - 2 - - 1 7 - - 4 1 3 32 20 46 91 33 - - - 1 - - - 25 44 17 26 47 13 1 7 16 14 10 23 10 34 31 52 36 64 25 34 29 19 1 1 2 5 - 16 7 34 4 1 9 14 5 59 43 - 5 63 70 1 1 - 4 5 4 1 - 2 3 4 3 15 2 5 10 - - 1 6 3 2 - 4 1 1 - 1 1 1 - - - - - - - - - - - - - - - - - - - - - - - - - - - - - - -
24 - - - 40 - - - - - - - - - 54 90 2 - 99 260 - - 8 28 164 656 330 644 837 95 - 8 - 20 - 9 1 116 383 158 858 1213 20 7 19 65 107 74 342 145 1109 678 812 985 1928 493 835 859 141 43 1 - 22 89 810 117 583 46 14 58 127 95 544 911 - 29 560 121 3 12 - 2 19 - - - 1 7 14 5 10 4 33 8 1 - - 1 3 - - 5 - - - - - - - - - - - - - - - - - - - - - - - - - - - - - - - - - - - - -
- - - - - - - - - - - - - - - - - - - - - - - - - - - - - - - - - - - - - - - - - - - - - - - - - - - - - - - - - - - - - - - - 1 - - - - - - - - 1 - - - - - - - - - 1 - - - - - - - - - - - - - - - - - - - - - - - - - - - - - - - - - - - - - - - - - - - - - - - - - - - - - - -
- - - - - - - - - - - - - - - - - - - - - - - - - - - - - - - - - - - - - - - - - - - - - - - 1 - - - - - - 2 - - 1 2 - - - - 1 - 3 - 1 - 1 2 - 1 9 - - 8 7 6 6 4 - 4 1 2 3 - - 2 2 4 2 3 5 2 - 1 1 1 1 3 1 1 - - - 1 - - - - 1 - - - - - - - - - - - - - - - - - - - - - 1 - - - - -
- - - - - - - - - - - - - - - - - - - - - - - 1 - - 1 - - - - - - - - - - 1 7 1 1 2 2 3 - 2 1 1 2 3 8 4 5 5 15 5 17 26 13 6 - 3 13 9 28 95 60 16 - 3 14 6 49 172 - 1 37 72 22 1 8 1 2 - 1 2 - 2 1 - - - - - - - - 1 - 2 1 3 - - - - - - - - - - - - - - - - - - - - - - - - - - - - - - - - - - - - -
- - - - - - - - - - - - - - - - - - - - - - - 2 - - - - - - 1 - - 1 - - - 4 1 2 - 2 1 - - - - - 3 1 3 3 1 - - - 1 1 1 - - - - - - - - - - - - - - - - - - - - - - - - - - - - - - - - - - - - - - - - - - - - - - - - - - - - - - - - - - - - - - - - - - - - - - - - - - - - - - - -
- - - - - - - - - - - - - - - - - - - - - - - - - - - - - - - - - - - - - - - - - - - - - - - - - - - - - - - - 1 - - - - - - 1 - 1 1 - 1 - - - 3 5 - - 1 6 2 3 - - 1 - 1 1 - - - - - - - - - - - - - - - 1 1 - - - - - 1 - - - - - - - - - - - - - - - - - - - - - - - - - - - - - -
- - - - - - - - - - - - - - - - - - - 1 - - - - - - - - - - - - - - - - - - - - - - - - - - - - - - 1 - - - - - - - - - - - - - - - - - - - - - - - - - - - - - - - - - - - - - - - - - - - - - - - - - - - - - - - - - - - - - - - - - - - - - - - - - - - - - - - - - - - - - - - -

 Autres espèces
 
Total 
  Aucune espèce (No aves)- 
  Canard indéterminé (Anatidae sp.)5 
  Ibis sacré (Threskiornis aethiopicus)1 
  Rapace indéterminé (Falconiformes sp.)141 
  Milan indéterminé (Milvus sp.)3 
  Busard pâle / cendré (Circus macrourus / pygargus)3 
  Autour / Epervier (Accipiter gentilis / nisus)1 
  Buse indéterminée (Buteo sp.)1 
  Faucon indéterminé (Falco sp.)5 
  Grue cendrée (Grus grus)536 
  petit limicole indéterminé (Charadriiformes sp. (pusilli))7 
  Grand Gravelot (Charadrius hiaticula)1 
  Vanneau huppé (Vanellus vanellus)7 
  Bécasseau variable (Calidris alpina)3 
  Bécassine des marais (Gallinago gallinago)1 
  Courlis indéterminé (Numenius sp.)1 
  Courlis corlieu (Numenius phaeopus)18 
  Courlis cendré (Numenius arquata)15 
  Chevalier indéterminé (Tringa) (Tringa sp.)1 
  Chevalier aboyeur (Tringa nebularia)3 
  Labbe parasite (Stercorarius parasiticus)1 
  Goéland indéterminé (Larus sp. (magna))3 
  Mouette mélanocéphale (Larus melanocephalus)2 
  Mouette rieuse (Chroicocephalus ridibundus)497 
  Mouette indéterminée (Larus sp.(pusilli))67 
  Goéland brun (Larus fuscus)1 
  Goéland leucophée (Larus michahellis)165 
  Sterne caspienne (Hydroprogne caspia)2 
  Pigeon indéterminé (Columba sp.)46642 
  Pigeon colombin (Columba oenas)2241 
  Pigeon ramier (Columba palumbus)77022 
  Martinet noir (Apus apus)22867 
  Martinet à ventre blanc (Apus melba)18 
  Guêpier d'Europe (Merops apiaster)746 
  Alouette indéterminée (Alaudidae sp.)212 
  Alouette lulu (Lullula arborea)486 
  Alouette des champs (Alauda arvensis)2069 
  Hirondelle indéterminée (Hirundinidae sp.)18450 
  Hirondelle de rivage (Riparia riparia)51 
  Hirondelle de rochers (Ptyonoprogne rupestris)63 
  Hirondelle rustique (Hirundo rustica)11700 
  Hirondelle de fenêtre (Delichon urbicum)5045 
  Pipit indéterminé (Anthus sp.)10 
  Pipit rousseline (Anthus campestris)1 
  Pipit des arbres (Anthus trivialis)137 
  Pipit farlouse (Anthus pratensis)921 
  Pipit spioncelle (Anthus spinoletta)13 
  Bergeronnette printanière (Motacilla flava)340 
  Bergeronnette des ruisseaux (Motacilla cinerea)117 
  Bergeronnette grise (Motacilla alba)2194 
  Accenteur mouchet (Prunella modularis)60 
  Merle / Grive indéterminé (Turdus sp.)683 
  Traquet motteux (Oenanthe oenanthe)1 
  Merle noir (Turdus merula)20 
  Grive litorne (Turdus pilaris)26 
  Grive musicienne (Turdus philomelos)5202 
  Grive mauvis (Turdus iliacus)230 
  Grive draine (Turdus viscivorus)206 
  Mésange indéterminée (Paridae sp.)35 
  Mésange noire (Periparus ater)12 
  Mésange bleue (Cyanistes caeruleus)463 
  Mésange charbonnière (Parus major)216 
  Rémiz penduline (Remiz pendulinus)12 
  Geai des chênes (Garrulus glandarius)1891 
  Cassenoix moucheté (Nucifraga caryocatactes)2 
  Choucas des tours (Corvus monedula)423 
  Corbeau freux (Corvus frugilegus)359 
  Étourneau sansonnet (Sturnus vulgaris)55455 
  Passereau indéterminé (Passeriformes sp.)13136 
  Moineau friquet (Passer montanus)6 
  Fringille indéterminé (Fringillidae sp.)1607 
  Pinson des arbres / du Nord (Fringilla coelebs / montifringilla)2038 
  Pinson des arbres (Fringilla coelebs)14962 
  Pinson du Nord (Fringilla montifringilla)5127 
  Serin cini (Serinus serinus)236 
  Verdier d'Europe (Carduelis chloris)165 
  Chardonneret élégant (Carduelis carduelis)882 
  Tarin des aulnes (Carduelis spinus)879 
  Linotte mélodieuse (Carduelis cannabina)508 
  Bec-croisé des sapins (Loxia curvirostra)50 
  Bouvreuil pivoine (Pyrrhula pyrrhula)10 
  Grosbec casse-noyaux (Coccothraustes coccothraustes)458 
  Bruant jaune (Emberiza citrinella)11 
  Bruant des roseaux (Emberiza schoeniclus)66 
  Bruant proyer (Emberiza calandra)3 

3 décembre
 Durée : 02h00 

2 décembre
 Durée : 00h00 

1 décembre
 Durée : 00h00 

30 novembre
 Durée : 00h00 

29 novembre
 Durée : 01h00 

28 novembre
 Durée : 00h00 

27 novembre
 Durée : 00h00 

26 novembre
 Durée : 00h00 

25 novembre
 Durée : 00h00 

24 novembre
 Durée : 00h00 

23 novembre
 Durée : 00h00 

22 novembre
 Durée : 00h00 

21 novembre
 Durée : 00h00 

20 novembre
 Durée : 00h00 

19 novembre
 Durée : 00h00 

18 novembre
 Durée : 00h00 

17 novembre
 Durée : 00h00 

16 novembre
 Durée : 00h00 

15 novembre
 Durée : 00h00 

14 novembre
 Durée : 01h00 

13 novembre
 Durée : 00h00 

12 novembre
 Durée : 00h00 

11 novembre
 Durée : 00h45 

10 novembre
 Durée : 00h00 

9 novembre
 Durée : 00h00 

8 novembre
 Durée : 00h00 

7 novembre
 Durée : 00h00 

6 novembre
 Durée : 00h00 

5 novembre
 Durée : 00h00 

4 novembre
 Durée : 00h00 

3 novembre
 Durée : 00h00 

2 novembre
 Durée : 00h00 

1 novembre
 Durée : 00h00 

31 octobre
 Durée : 01h00 

30 octobre
 Durée : 00h00 

29 octobre
 Durée : 00h00 

28 octobre
 Durée : 00h00 

27 octobre
 Durée : 00h00 

26 octobre
 Durée : 00h00 

25 octobre
 Durée : 00h00 

24 octobre
 Durée : 00h00 

23 octobre
 Durée : 11h30 

22 octobre
 Durée : 00h00 

21 octobre
 Durée : 00h00 

20 octobre
 Durée : 00h00 

19 octobre
 Durée : 00h00 

18 octobre
 Durée : 00h00 

17 octobre
 Durée : 00h00 

16 octobre
 Durée : 00h00 

15 octobre
 Durée : 00h00 

14 octobre
 Durée : 00h00 

13 octobre
 Durée : 00h00 

12 octobre
 Durée : 00h00 

11 octobre
 Durée : 00h00 

10 octobre
 Durée : 00h45 

9 octobre
 Durée : 00h00 

8 octobre
 Durée : 00h00 

7 octobre
 Durée : 00h00 

6 octobre
 Durée : 00h00 

5 octobre
 Durée : 00h00 

4 octobre
 Durée : 00h00 

3 octobre
 Durée : 00h00 

2 octobre
 Durée : 00h00 

1 octobre
 Durée : 00h00 

30 septembre
 Durée : 00h00 

29 septembre
 Durée : 00h00 

28 septembre
 Durée : 00h00 

27 septembre
 Durée : 00h00 

26 septembre
 Durée : 00h15 

25 septembre
 Durée : 00h00 

24 septembre
 Durée : 00h00 

23 septembre
 Durée : 00h00 

22 septembre
 Durée : 00h00 

21 septembre
 Durée : 00h00 

20 septembre
 Durée : 00h00 

19 septembre
 Durée : 01h00 

18 septembre
 Durée : 00h00 

17 septembre
 Durée : 00h00 

16 septembre
 Durée : 00h00 

15 septembre
 Durée : 00h00 

14 septembre
 Durée : 00h00 

13 septembre
 Durée : 00h00 

12 septembre
 Durée : 00h00 

11 septembre
 Durée : 00h00 

10 septembre
 Durée : 00h00 

9 septembre
 Durée : 00h00 

8 septembre
 Durée : 00h00 

7 septembre
 Durée : 00h00 

6 septembre
 Durée : 00h00 

5 septembre
 Durée : 00h30 

4 septembre
 Durée : 00h00 

3 septembre
 Durée : 00h00 

2 septembre
 Durée : 00h00 

1 septembre
 Durée : 00h00 

31 août
 Durée : 00h00 

30 août
 Durée : 00h00 

29 août
 Durée : 00h00 

28 août
 Durée : 00h00 

27 août
 Durée : 00h00 

26 août
 Durée : 00h00 

25 août
 Durée : 00h00 

24 août
 Durée : 00h00 

23 août
 Durée : 00h00 

22 août
 Durée : 00h00 

21 août
 Durée : 00h00 

20 août
 Durée : 00h00 

19 août
 Durée : 00h00 

18 août
 Durée : 00h00 

17 août
 Durée : 00h00 

16 août
 Durée : 00h00 

15 août
 Durée : 00h00 

14 août
 Durée : 00h00 

13 août
 Durée : 00h00 

12 août
 Durée : 00h00 

11 août
 Durée : 00h00 

10 août
 Durée : 00h00 

9 août
 Durée : 00h00 

8 août
 Durée : 00h15 

7 août
 Durée : 00h00 

6 août
 Durée : 00h00 

5 août
 Durée : 00h00 

4 août
 Durée : 00h00 

3 août
 Durée : 00h00 

2 août
 Durée : 00h00 

1 août
 Durée : 01h00 

31 juillet
 Durée : 00h00 

30 juillet
 Durée : 00h00 

29 juillet
 Durée : 00h00 

28 juillet
 Durée : 00h00 

27 juillet
 Durée : 00h00 

26 juillet
 Durée : 00h00 

25 juillet
 Durée : 00h00 

24 juillet
 Durée : 00h00 

23 juillet
 Durée : 00h00 

22 juillet
 Durée : 00h00 

21 juillet
 Durée : 00h00 

20 juillet
 Durée : 00h00 

19 juillet
 Durée : 00h00 

18 juillet
 Durée : 00h00 
-------------------------------------------------------------------------------------------------------------------------------------------
----------------------------------------4-------1------------------------------------------------------------------------------------------
------------------------------------------------------1------------------------------------------------------------------------------------
-------------------1-----71-11----------14-11------2-7-11-6118--1---7----6--1---43----26---1--325111--121-3-------------------------------------
---------------------------------------------------------------------------------------1----------1---1------------------------------------
---------------------------------------------------------1-----------------------------------11--------------------------------------------
------------------------------------------------------------------------------------------1------------------------------------------------
-----------------------------------------------------1-------------------------------------------------------------------------------------
---------------------------------------1------1-----1--1-1---------------------------------------------------------------------------------
----------------------226--79----------29322491----26--------2------------------------------------------------------------------------------------
----------------------------------------------------------------7--------------------------------------------------------------------------
----------------------------------------------------------------1--------------------------------------------------------------------------
-----------------------------------------------------------------6------1------------------------------------------------------------------
-------------------------------------------------------------------------3-----------------------------------------------------------------
----------------------------------------------------------------------------1--------------------------------------------------------------
----------------------------------------------------------------1--------------------------------------------------------------------------
---------------------------------------------------------------------------------------------------------2-----14-----2---------------------
------------------------------------------------------1----------------147-------------------1------------1--------------------------------
--------------------------------------------------------------------------------1----------------------------------------------------------
------------------------------------------------------------------------------------------1--2---------------------------------------------
---------------------------------------------------------------------------------------------------------------------1---------------------
----------------------------------------------3--------------------------------------------------------------------------------------------
--------------------------------------------------------------------------------------------------------------------2----------------------
----------------------------20---------41-------------------------11-----------1152--------------------------------19-37189476---16-14----39-8--23------
-------------------------------------------------------------------------------------------------8---------------59-------------------------
------------------------------------------------------------------------1------------------------------------------------------------------
--------------34-------21----25127-----21-10-3-64---1----46-----------4----2---1-11--------424------1-10------------114814-3-----6---2----5-----
-----------------------------------------------------------------------------------------2-------------------------------------------------
---------------------------40----------1110020234----17-63-25-1402173129920456876626287100--10610--15-48-15--10----------------------------------------------------------------
---------------------------2-2-------223414474--147962104523193012717577110237-31059219724093021612366176-1286109-543-4--2-3-21721-------------15---------------------------------
-------------------8---21-489522826649------917819119414931078169-2060639040017089875618682924247470142404918769498212388-1169115216960829422-10422144379-17-------------------------------------------------------------
-------------------------------------------------------------------------1---1------10--------3---3----3-74--3-11630211008013636104649-663290-708946-3707135941162229084325591382925258--
-------------------------------------------------------------------------------------1----------2------2-211--------------------------------
---------------------------------------------------------------------------------20-59--77109189290-1-------1---------------------------------------
---------------------------------------38----------3----168--3--------------------------------------------------------------------------------
--------------------------143-44261----5-111-138141624-55219140-595583432-----------------1-------------------------------------------------------------
-----------------------38--4342118-20754----3232271244118107-15974125533613-1632212764-7---1----------------------------------------------------------------------------
-----------------------------------------------33-------1328119--6381516641521425202542034195106593-915206269462632503504452106021671390111176-1255659--9------31-------------------------------------
-------------------------------------------------------------------------------21-------------2---------------------4----------------7413----
-----------------------------------------------------------------4------------------1940-----------------------------------------------------
------------------------------2--------------1---924---4325537342-741547226331887186255504015228033935820574113970-45532411472156262110450153076048158732034-17291202-22542827-62-----------------------------
-----------------------------3-------------------------725257884-10516846935669082530-1156365-39-243704245627----675-1-42----2640619-14100-4-----9-------70---------------------
--------------------------------------------------------3-----7----------------------------------------------------------------------------
---------------------------------------------------------------------------------1---------------------------------------------------------
--------------------------------------------------------1-21--171-1---832267-616142---4-652--2498--5-516-------------------------------------
--------------222-3--4-111411-71411225349----112114-265399328719713729-608511381-123-24--1---------------------------------------------------------------------
-------------------------1-----10-------------------2---------------------------------------------------------------------------------------
-----------------------------------------------1----1----4-3-14-4205--43149102447294-53-163--126-2120562-9213-623-1----------------------------------
-------------------------1--11------1141-2271---1-32---212531--1074564-45221--722--2-21------------------------------------------------------
-----------------1-------21361255188----1501931004146415316213522554934201670471597346292524-151297967371-15368315-48-------------------------------------------------------------
-----------------------2--31-4-1----14713-1--2------41-23-31--33-4-1-1-31------------------------------------------------------------------
---------------------------49--22-----2619-9---2-14-6--184952588---------------------------------------------------------------------------------
-----------------------------------------------------------------1-------------------------------------------------------------------------
----