Visiteur Anonyme
HAUTE-SAVOIE
Accueil
 
Partenaires
 
La Faune d'Auvergne-Rhône-Alpes
Consulter les observations
  Les observations
    - 
Les 2 derniers jours
    - 
Les 5 derniers jours
    - 
Les 15 derniers jours
     Synthèse migration
       - 
Le Hucel
       - 
Défilé de l'Ecluse
     Données et analyses
       - 
Hirondelle rustique 2020
       - 
Hirondelle de fenêtre 2020
       - 
Bouscarle de Cetti 2020
       - 
Coucou gris 2020
       - 
Milan noir 2020
       - 
Pic mar 2020
       - 
Milan royal 2020
       - 
Tarier des prés 2020
       - 
Castor d'Eurasie 17-20
       - 
Souris grise (M.m. domesticus) 17-20
       - 
Citron 2020
       - 
Sonneur à ventre jaune 11-20
       - 
Crapaud commun 2020
       - 
Grenouille agile 18-20
       - 
Lézard des souches 11-20
       - 
Lézard à deux raies (L. vert occidental) 2020
       - 
Grande Aigrette 19-20
       - 
Gypaète barbu 19-20
       - 
Vautour moine 2020
       - 
Vautour fauve 2020
 - 
Les galeries
Information
  Aide
    - 
Espèces à publication limitée
    - 
Explication des symboles
    - 
les FAQs
  Statistiques
La faune de Haute-Savoie
 - 
Plan Vigilance Avifaune 74
 - 
Carte dynamique de la faune de Haute-Savoie
 - 
Carte dynamique des oiseaux nicheurs de Haute-Savoie
Vie associative
Conservation
Suivis et Expertises
Sensibilisation
Groupes faunistiques
Utilisation du site
Offres d'emploi
Les liens

La LPO est le reprsentant
pour la FRANCE de


Synthèse migration 1998 : Défilé de l'Ecluse - site suivi migration (Chevrier)

Date : du dimanche 12 juillet 1998 au mercredi 2 décembre 1998

Nombre de jour de suivi : 133
Nombre d'heures de suivi : 937h15

Nombre d'oiseaux : 829439
Nombre de rapaces : 22394



 Cigognes et rapaces
 
Total 
 Espèce plutôt rare Tadorne casarca (Tadorna ferruginea)4 
 Espèce plutôt rare Harle bièvre (Mergus merganser)4 
 Espèce commune Grand Cormoran (Phalacrocorax carbo)4396 
 Espèce plutôt rare Grande Aigrette (Casmerodius albus)7 
 Espèce plutôt rare Héron cendré (Ardea cinerea)609 
 Espèce plutôt rare Héron pourpré (Ardea purpurea)7 
 Espèce plutôt rare Cigogne noire (Ciconia nigra)76 
 Espèce plutôt rare Cigogne blanche (Ciconia ciconia)40 
 Afficher phénologie Espèce commune Bondrée apivore (Pernis apivorus)3206 
 Afficher phénologie Espèce commune Milan noir (Milvus migrans)3642 
 Afficher phénologie Hivernant peu fréquent Milan royal (Milvus milvus)2144 
 Afficher phénologie Espèce plutôt rare Circaète Jean-le-Blanc (Circaetus gallicus)2 
 Afficher phénologie Espèce plutôt rare Busard indéterminé (Circus sp.)1 
 Afficher phénologie Espèce plutôt rare Busard des roseaux (Circus aeruginosus)778 
 Afficher phénologie Espèce plutôt rare Busard Saint-Martin (Circus cyaneus)41 
 Afficher phénologie Espèce plutôt rare Busard cendré (Circus pygargus)16 
 Afficher phénologie Espèce commune Autour des palombes (Accipiter gentilis)4 
 Afficher phénologie Espèce commune Épervier d'Europe (Accipiter nisus)983 
 Afficher phénologie Espèce commune Buse variable (Buteo buteo)10959 
 Afficher phénologie Espèce plutôt rare Aigle criard (Aquila clanga)1 
 Afficher phénologie Espèce plutôt rare Aigle botté (Aquila pennata)1 
 Afficher phénologie Espèce plutôt rare Balbuzard pêcheur (Pandion haliaetus)142 
 Afficher phénologie Espèce commune Faucon crécerelle (Falco tinnunculus)321 
 Afficher phénologie Espèce plutôt rare Faucon émerillon (Falco columbarius)66 
 Afficher phénologie Espèce plutôt rare Faucon hobereau (Falco subbuteo)87 

2 décembre
 Durée : 03h00 

1 décembre
 Durée : 05h30 

30 novembre
 Durée : 06h30 

29 novembre
 Durée : 00h00 

28 novembre
 Durée : 05h45 

27 novembre
 Durée : 03h30 

26 novembre
 Durée : 00h00 

25 novembre
 Durée : 05h00 

24 novembre
 Durée : 06h15 

23 novembre
 Durée : 07h30 

22 novembre
 Durée : 07h30 

21 novembre
 Durée : 04h45 

20 novembre
 Durée : 04h45 

19 novembre
 Durée : 07h30 

18 novembre
 Durée : 07h30 

17 novembre
 Durée : 07h30 

16 novembre
 Durée : 04h00 

15 novembre
 Durée : 04h00 

14 novembre
 Durée : 00h00 

13 novembre
 Durée : 05h00 

12 novembre
 Durée : 05h30 

11 novembre
 Durée : 08h30 

10 novembre
 Durée : 00h00 

9 novembre
 Durée : 04h00 

8 novembre
 Durée : 04h00 

7 novembre
 Durée : 08h00 

6 novembre
 Durée : 09h15 

5 novembre
 Durée : 08h15 

4 novembre
 Durée : 06h00 

3 novembre
 Durée : 06h30 

2 novembre
 Durée : 09h30 

1 novembre
 Durée : 00h00 

31 octobre
 Durée : 08h15 

30 octobre
 Durée : 04h45 

29 octobre
 Durée : 00h00 

28 octobre
 Durée : 04h00 

27 octobre
 Durée : 09h30 

26 octobre
 Durée : 05h45 

25 octobre
 Durée : 03h45 

24 octobre
 Durée : 09h15 

23 octobre
 Durée : 09h30 

22 octobre
 Durée : 08h45 

21 octobre
 Durée : 08h30 

20 octobre
 Durée : 08h30 

19 octobre
 Durée : 11h45 

18 octobre
 Durée : 09h45 

17 octobre
 Durée : 08h00 

16 octobre
 Durée : 09h45 

15 octobre
 Durée : 10h15 

14 octobre
 Durée : 10h00 

13 octobre
 Durée : 09h45 

12 octobre
 Durée : 09h30 

11 octobre
 Durée : 09h15 

10 octobre
 Durée : 08h45 

9 octobre
 Durée : 10h45 

8 octobre
 Durée : 09h00 

7 octobre
 Durée : 09h30 

6 octobre
 Durée : 00h00 

5 octobre
 Durée : 10h00 

4 octobre
 Durée : 07h45 

3 octobre
 Durée : 06h30 

2 octobre
 Durée : 00h00 

1 octobre
 Durée : 08h15 

30 septembre
 Durée : 00h00 

29 septembre
 Durée : 09h00 

28 septembre
 Durée : 02h00 

27 septembre
 Durée : 08h45 

26 septembre
 Durée : 04h15 

25 septembre
 Durée : 08h15 

24 septembre
 Durée : 09h00 

23 septembre
 Durée : 06h45 

22 septembre
 Durée : 08h45 

21 septembre
 Durée : 09h45 

20 septembre
 Durée : 11h15 

19 septembre
 Durée : 10h30 

18 septembre
 Durée : 10h15 

17 septembre
 Durée : 09h45 

16 septembre
 Durée : 08h00 

15 septembre
 Durée : 09h30 

14 septembre
 Durée : 08h30 

13 septembre
 Durée : 05h30 

12 septembre
 Durée : 08h15 

11 septembre
 Durée : 04h30 

10 septembre
 Durée : 05h45 

9 septembre
 Durée : 08h00 

8 septembre
 Durée : 08h00 

7 septembre
 Durée : 08h30 

6 septembre
 Durée : 08h15 

5 septembre
 Durée : 09h00 

4 septembre
 Durée : 10h00 

3 septembre
 Durée : 01h30 

2 septembre
 Durée : 07h30 

1 septembre
 Durée : 09h45 

31 août
 Durée : 08h00 

30 août
 Durée : 08h00 

29 août
 Durée : 08h30 

28 août
 Durée : 06h00 

27 août
 Durée : 08h45 

26 août
 Durée : 08h00 

25 août
 Durée : 08h15 

24 août
 Durée : 02h15 

23 août
 Durée : 08h30 

22 août
 Durée : 00h00 

21 août
 Durée : 01h30 

20 août
 Durée : 06h45 

19 août
 Durée : 06h30 

18 août
 Durée : 05h00 

17 août
 Durée : 06h00 

16 août
 Durée : 07h15 

15 août
 Durée : 07h15 

14 août
 Durée : 07h00 

13 août
 Durée : 07h30 

12 août
 Durée : 05h30 

11 août
 Durée : 06h30 

10 août
 Durée : 06h30 

9 août
 Durée : 07h45 

8 août
 Durée : 06h30 

7 août
 Durée : 06h00 

6 août
 Durée : 07h00 

5 août
 Durée : 08h00 

4 août
 Durée : 07h45 

3 août
 Durée : 06h00 

2 août
 Durée : 02h15 

1 août
 Durée : 02h15 

31 juillet
 Durée : 06h15 

30 juillet
 Durée : 07h00 

29 juillet
 Durée : 07h30 

28 juillet
 Durée : 06h30 

27 juillet
 Durée : 00h00 

26 juillet
 Durée : 05h45 

25 juillet
 Durée : 05h30 

24 juillet
 Durée : 06h15 

23 juillet
 Durée : 05h15 

22 juillet
 Durée : 06h30 

21 juillet
 Durée : 04h00 

20 juillet
 Durée : 04h45 

19 juillet
 Durée : 07h15 

18 juillet
 Durée : 05h00 

17 juillet
 Durée : 06h00 

16 juillet
 Durée : 06h15 

15 juillet
 Durée : 05h45 

14 juillet
 Durée : 06h00 

13 juillet
 Durée : 04h15 

12 juillet
 Durée : 05h45 
- - - - - - - - 4 - - - - - - - - - - - - - - - - - - - - - - - - - - - - - - - - - - - - - - - - - - - - - - - - - - - - - - - - - - - - - - - - - - - - - - - - - - - - - - - - - - - - - - - - - - - - - - - - - - - - - - - - - - - - - - - - - - - - - - - - - - - - - - - - - - - - - - -
- - 4 - - - - - - - - - - - - - - - - - - - - - - - - - - - - - - - - - - - - - - - - - - - - - - - - - - - - - - - - - - - - - - - - - - - - - - - - - - - - - - - - - - - - - - - - - - - - - - - - - - - - - - - - - - - - - - - - - - - - - - - - - - - - - - - - - - - - - - - - - - - - -
- - 1 - 7 - - 2 2 16 9 8 8 9 53 8 2 22 - 31 28 21 - 14 31 33 75 128 - 91 255 - 138 57 - 8 55 11 - 15 158 140 121 14 58 140 793 199 67 70 111 36 88 93 132 33 5 - 65 59 - - 4 - 12 20 56 - 7 20 17 21 110 149 93 98 82 12 41 20 17 10 - 7 14 - 17 2 8 1 - 1 2 1 - - 1 9 - - 13 - - - - - - - - - - - - - - - 5 - - - - - - - - - - - - - - - 3 - - - 3 - - - - - - -
- - - - - - - - - - - - - - - - - - - - - - - - - - 1 - - 2 - - - - - - - - - - - - - - - - - - - - - - - 2 - - - - 1 - - - - - - - - - - - - - - - - - - - - - - - - - - - - - - - - - - 1 - - - - - - - - - - - - - - - - - - - - - - - - - - - - - - - - - - - - - - - - - - - - - - - - - -
- - - - - - - - - - 3 - - 4 - - - - - - - - - - 17 - - - - - 7 - - - - - - - - - 2 - - - 6 42 - - - 5 - - - - 3 - - - - - 6 - - - - - - - - - 2 12 133 163 55 1 8 - - - - - - 7 7 - 1 - - - - 2 85 11 - - - 1 13 - - - - - - - - - 3 - - - - - 7 - - - - - - - - - - 2 - 1 - - - - - - - - - - - - - - - -
- - - - - - - - - - - - - - - - - - - - - - - - - - - - - - - - - - - - - - - - - - - - - - - - - - - - - - - - - - - - - - - - - - - - - - - - - - - - 2 - - - - - - - - - - - - - - - - 5 - - - - - - - - - - - - - - - - - - - - - - - - - - - - - - - - - - - - - - - - - - - - - - - - - -
- - - - - - - - - - - - - - - - - - - - - - - - - - - - - - - - - - - - - - - - - - - - - - - - 1 1 1 - - 1 - - - - - 2 - - - - - - 2 - - - 4 1 5 28 2 1 - - - 1 - - - - 1 - - 3 9 - 2 3 2 - 1 - - - - - - 1 - - - - - - - 2 - - - - - - - - - - - - - - - 1 - - - - - - 1 - - - - - - - - - - -
- - - - - - - - - - - - - - - - - - - - - - - - - - - - - - - - - - - - - - - - - - - - - - - - - - - - - - - 2 - - - - - - - - - - - - - - - - 2 5 - - - - - - - - - - - - - - 8 - - 16 6 - - - - - - - - - - - 1 - - - - - - - - - - - - - - - - - - - - - - - - - - - - - - - - - - - - - - -
- - - - - - - - - - - - - - - - - - - - - - - - - - - - - - - - - - - - - - - - - 2 - - - - - - - - - - - - - - - - 4 - - - - - - - - - - - 1 - 6 6 34 35 28 150 44 114 32 57 16 5 43 34 19 308 517 276 27 97 149 26 81 698 11 108 68 84 5 58 - 8 4 10 6 4 10 8 1 9 - 3 - - - - - - - - - - - - - - - - - - - - - - - - - - - - - -
- - - - - - - - - - - - - - - - - - - - - - - - - - - - - - - - - - - - - - - - - - - - - - - - - - - - - 1 - - - - 2 - - - - - - - - - - - - - 7 36 27 4 3 3 2 4 - 3 14 1 2 2 6 10 8 10 4 35 16 14 27 58 - 11 26 5 - 3 - - 4 3 1 8 7 7 - 8 3 52 24 105 25 48 12 183 136 953 - 29 174 147 52 39 - 79 99 65 77 138 48 175 134 73 77 53 79 91 52 38
- - - - 4 - - - 1 3 6 5 2 13 37 9 - - - 2 5 2 - 2 8 32 12 5 2 2 3 - - - - 3 1 1 1 11 24 11 22 20 34 28 12 49 78 64 87 28 110 49 139 30 55 - 314 1 2 - 21 - 84 - 61 38 27 31 7 11 102 228 137 52 2 1 - 1 - - - - 2 - - - - - - 1 - - - 3 - - 2 1 - - - - - - - - - 1 - - - - - - - - - - - - - - - - - - - - - - - - - - - - - - - 2 - -
- - - - - - - - - - - - - - - - - - - - - - - - - - - - - - - - - - - - - - - - - - - - - - - - - - - - - - - - - - - - - - - - - - - - - - - - - - - - - - - - - - - - - - - - - - - - - - - - - - - - - - - - - - - - - - - - 1 - - - - - - - - 1 - - - - - - - - - - - - - - - - - - - - - -
- - - - - - - - - - - - - - - - - - - - - - - - - - - - - - - - - - - - - - - - - - - - - - - - - - - - - - - - - - - - - - - - - - - - - - - - - - - - - - - - - - - - - - - - - - - - - - - - - - - - - - - - - - - - 1 - - - - - - - - - - - - - - - - - - - - - - - - - - - - - - - - - - -
- - - - - - - - - - - - - - - - - - - - - - - 1 - - - - - - 1 - - - - - - - - - 2 - - - - 2 - - - - 1 - 6 9 14 5 - - 6 2 1 - - - - 1 3 - 2 1 3 4 13 123 419 16 2 14 6 6 1 8 14 13 23 9 1 4 3 10 - 6 13 1 2 - - - - - - 1 - - 1 - - 1 - - - - - - - - - - - - 1 2 1 - - - - - - - - - - - - - - - - - - - - -
1 1 - - 1 - - 1 2 3 1 - 1 - 2 2 1 - - 1 1 - - - 3 - 4 - - - 1 - 1 - - 2 - - - 1 1 1 - 1 - - - - - - 1 - - - - - - - 1 - - - - - - - 1 - - - 2 - 1 1 - - - 1 - - - - - - - - - - - - - - - - - - - - - - - - - - - - - - - - - - - - - - - - - - - - - - - - - - - - - - - - - - - - - - - - - -
- - - - - - - - - - - - - - - - - - - - - - - - - - - - - - - - - - - - - - - - - - - - - - - - - - - - - - - - - - - - - - - - - - - - - - - - - 1 - - 1 4 - - - - - - - 1 - 3 - 1 - 1 - 1 - 1 - - - - - - - - - - - 1 - - - - - - - - - - - - - - - 1 - - - - - - - - - - - - - - - - - - - -
- - - - - - - - - - - - - - - - - - - - - 1 - - - 1 - - - - - - - - - - - - - - - - - - - - - - - - - - - - - - - - 1 - - - - - - - - - - - - - - - - 1 - - - - - - - - - - - - - - - - - - - - - - - - - - - - - - - - - - - - - - - - - - - - - - - - - - - - - - - - - - - - - - - - - - - -
- 2 - - 1 - - - 1 1 3 - 1 1 8 6 1 - - 2 5 15 - 12 18 24 27 16 2 2 34 - 43 5 - 1 23 2 6 10 12 8 7 6 32 19 10 24 32 52 53 16 13 9 40 41 7 - 38 - 4 - 10 - 5 1 5 - 5 5 6 5 27 79 52 38 12 6 5 4 7 1 4 - 3 5 - 2 1 - - - - - - - - - - - - - - - - - - - - - - - - - - - - - - - - - - - - - - - - - - - - - - - - - - - - - - -
4 256 372 - 454 36 - 161 255 794 1435 469 191 302 373 273 16 - - 18 36 309 - 45 62 306 229 54 10 6 221 - 64 27 - 6 169 29 51 50 31 43 95 75 368 83 33 117 232 275 310 110 131 69 270 252 95 - 337 10 13 - 63 - 36 - 13 - 15 12 19 7 50 216 171 234 13 21 9 12 9 1 - - 2 2 - 11 3 5 - - 2 - 1 - - - - - - - - - - - - - - - - - - - - - - - - - - - - - - - - - - - - - - - - - - - - - - - - -
- - - - - - - - - - - - - - - - - - - - - - - - - - - - - - - - - - - - - 1 - - - - - - - - - - - - - - - - - - - - - - - - - - - - - - - - - - - - - - - - - - - - - - - - - - - - - - - - - - - - - - - - - - - - - - - - - - - - - - - - - - - - - - - - - - - - - - - - - - - - - - - - - -
- - - - - - - - - - - - - - - - - - - - - - - - - - - - - - - - - - - - - - - - - - - - - - - - - - - - - - - - - - - - - - - - - - - - - - - - - - - - - 1 - - - - - - - - - - - - - - - - - - - - - - - - - - - - - - - - - - - - - - - - - - - - - - - - - - - - - - - - - - - - - - - - - -
- - - - - - - - - - - - - - - - - - - - - - - - - - - - - 1 - - - - - - - - - - 1 - - - - - - - - 6 - - 1 - 2 - 1 - 1 1 2 - 3 - - 1 1 - 1 - 2 - 1 4 3 9 7 3 12 1 1 - 2 2 11 2 1 5 6 5 2 1 19 - 1 3 - 4 - 1 1 5 - - 1 - 1 - - - - 1 1 - 1 - 1 - - - - - - - - - - - - - - - - - - - - - - - - - - -
- - - - - - - - - - - - - - - - - - - - - - - - - 1 1 1 - 2 1 - 7 2 - - 6 4 1 - 3 4 2 1 6 36 11 3 4 20 22 12 14 15 21 14 6 - 26 3 3 - 11 - 4 - - - 2 2 2 1 3 4 10 6 4 9 6 2 - - - 2 1 - - - - - - - - - - - - - - - - - - - - - - - - - - - - - - - - - - - - - - - - - - - - - - - - - - - - - - - - - - -
- - - - 1 - - - - - - - - 1 - - - - - - - - - - - - 1 1 - - 2 - 2 - - - - - - - 3 2 1 - 3 11 3 - 2 8 4 2 2 5 6 1 1 - 1 1 - - - - 1 - - - - - - - 1 - - - - - - - - - - - - - - - - - - - - - - - - - - - - - - - - - - - - - - - - - - - - - - - - - - - - - - - - - - - - - - - - - - - - - - -
- - - - - - - - - - - - - - - - - - - - - - - - - - - - - - - - - - - 1 - - 1 - - - - - - - 1 - 1 - 1 - - - - 5 2 - 4 1 1 - 2 - 2 - 4 - - - 1 1 1 12 7 7 5 7 4 4 5 - - 2 - 2 - 1 1 - - - 1 - - - - - - - - - - - - - - - - - - - - - - - - - - - - - - - - - - - - - - - - - - - - - - - - - - -

 Autres espèces
 
Total 
 Espèce commune Rapace indéterminé (Falconiformes sp.)71 
 Espèce commune Faucon indéterminé (Falco sp.)12 
 Espèce plutôt rare Grue cendrée (Grus grus)14 
 Espèce nicheuse peu commune Limicole indéterminé (Charadriiformes sp. (magna))31 
 Espèce plutôt rare Vanneau huppé (Vanellus vanellus)356 
 Espèce plutôt rare Bécasseau variable (Calidris alpina)1 
 Espèce plutôt rare Combattant varié (Philomachus pugnax)35 
 Espèce plutôt rare Courlis corlieu (Numenius phaeopus)6 
 Espèce plutôt rare Courlis cendré (Numenius arquata)20 
 Espèce plutôt rare Mouette mélanocéphale (Larus melanocephalus)1 
 Espèce nicheuse peu commune Goéland leucophée (Larus michahellis)737 
 Espèce plutôt rare Guifette noire (Chlidonias niger)1 
 Hivernant peu fréquent Pigeon colombin (Columba oenas)4120 
 Espèce commune Pigeon ramier (Columba palumbus)108206 
 Espèce plutôt rare Hibou des marais (Asio flammeus)2 
 Espèce commune Martinet noir (Apus apus)4750 
 Espèce plutôt rare Martinet à ventre blanc (Apus melba)14 
 Espèce plutôt rare Alouette lulu (Lullula arborea)1405 
 Hivernant peu fréquent Alouette des champs (Alauda arvensis)42821 
 Espèce commune Hirondelle indéterminée (Hirundinidae sp.)40815 
 Espèce commune Bergeronnette printanière (Motacilla flava)2 
 Espèce plutôt rare Tichodrome échelette (Tichodroma muraria)1 
 Espèce plutôt rare Rémiz penduline (Remiz pendulinus)5 
 Espèce plutôt rare Loriot d'Europe (Oriolus oriolus)1 
 Espèce commune Cassenoix moucheté (Nucifraga caryocatactes)1 
 Espèce plutôt rare Choucas des tours (Corvus monedula)805 
 Espèce nicheuse peu commune Corbeau freux (Corvus frugilegus)8757 
 Espèce commune Étourneau sansonnet (Sturnus vulgaris)9842 
 Espèce commune Passereau indéterminé (Passeriformes sp.)579070 

2 décembre
 Durée : 03h00 

1 décembre
 Durée : 05h30 

30 novembre
 Durée : 06h30 

29 novembre
 Durée : 00h00 

28 novembre
 Durée : 05h45 

27 novembre
 Durée : 03h30 

26 novembre
 Durée : 00h00 

25 novembre
 Durée : 05h00 

24 novembre
 Durée : 06h15 

23 novembre
 Durée : 07h30 

22 novembre
 Durée : 07h30 

21 novembre
 Durée : 04h45 

20 novembre
 Durée : 04h45 

19 novembre
 Durée : 07h30 

18 novembre
 Durée : 07h30 

17 novembre
 Durée : 07h30 

16 novembre
 Durée : 04h00 

15 novembre
 Durée : 04h00 

14 novembre
 Durée : 00h00 

13 novembre
 Durée : 05h00 

12 novembre
 Durée : 05h30 

11 novembre
 Durée : 08h30 

10 novembre
 Durée : 00h00 

9 novembre
 Durée : 04h00 

8 novembre
 Durée : 04h00 

7 novembre
 Durée : 08h00 

6 novembre
 Durée : 09h15 

5 novembre
 Durée : 08h15 

4 novembre
 Durée : 06h00 

3 novembre
 Durée : 06h30 

2 novembre
 Durée : 09h30 

1 novembre
 Durée : 00h00 

31 octobre
 Durée : 08h15 

30 octobre
 Durée : 04h45 

29 octobre
 Durée : 00h00 

28 octobre
 Durée : 04h00 

27 octobre
 Durée : 09h30 

26 octobre
 Durée : 05h45 

25 octobre
 Durée : 03h45 

24 octobre
 Durée : 09h15 

23 octobre
 Durée : 09h30 

22 octobre
 Durée : 08h45 

21 octobre
 Durée : 08h30 

20 octobre
 Durée : 08h30 

19 octobre
 Durée : 11h45 

18 octobre
 Durée : 09h45 

17 octobre
 Durée : 08h00 

16 octobre
 Durée : 09h45 

15 octobre
 Durée : 10h15 

14 octobre
 Durée : 10h00 

13 octobre
 Durée : 09h45 

12 octobre
 Durée : 09h30 

11 octobre
 Durée : 09h15 

10 octobre
 Durée : 08h45 

9 octobre
 Durée : 10h45 

8 octobre
 Durée : 09h00 

7 octobre
 Durée : 09h30 

6 octobre
 Durée : 00h00 

5 octobre
 Durée : 10h00 

4 octobre
 Durée : 07h45 

3 octobre
 Durée : 06h30 

2 octobre
 Durée : 00h00 

1 octobre
 Durée : 08h15 

30 septembre
 Durée : 00h00 

29 septembre
 Durée : 09h00 

28 septembre
 Durée : 02h00 

27 septembre
 Durée : 08h45 

26 septembre
 Durée : 04h15 

25 septembre
 Durée : 08h15 

24 septembre
 Durée : 09h00 

23 septembre
 Durée : 06h45 

22 septembre
 Durée : 08h45 

21 septembre
 Durée : 09h45 

20 septembre
 Durée : 11h15 

19 septembre
 Durée : 10h30 

18 septembre
 Durée : 10h15 

17 septembre
 Durée : 09h45 

16 septembre
 Durée : 08h00 

15 septembre
 Durée : 09h30 

14 septembre
 Durée : 08h30 

13 septembre
 Durée : 05h30 

12 septembre
 Durée : 08h15 

11 septembre
 Durée : 04h30 

10 septembre
 Durée : 05h45 

9 septembre
 Durée : 08h00 

8 septembre
 Durée : 08h00 

7 septembre
 Durée : 08h30 

6 septembre
 Durée : 08h15 

5 septembre
 Durée : 09h00 

4 septembre
 Durée : 10h00 

3 septembre
 Durée : 01h30 

2 septembre
 Durée : 07h30 

1 septembre
 Durée : 09h45 

31 août
 Durée : 08h00 

30 août
 Durée : 08h00 

29 août
 Durée : 08h30 

28 août
 Durée : 06h00 

27 août
 Durée : 08h45 

26 août
 Durée : 08h00 

25 août
 Durée : 08h15 

24 août
 Durée : 02h15 

23 août
 Durée : 08h30 

22 août
 Durée : 00h00 

21 août
 Durée : 01h30 

20 août
 Durée : 06h45 

19 août
 Durée : 06h30 

18 août
 Durée : 05h00 

17 août
 Durée : 06h00 

16 août
 Durée : 07h15 

15 août
 Durée : 07h15 

14 août
 Durée : 07h00 

13 août
 Durée : 07h30 

12 août
 Durée : 05h30 

11 août
 Durée : 06h30 

10 août
 Durée : 06h30 

9 août
 Durée : 07h45 

8 août
 Durée : 06h30 

7 août
 Durée : 06h00 

6 août
 Durée : 07h00 

5 août
 Durée : 08h00 

4 août
 Durée : 07h45 

3 août
 Durée : 06h00 

2 août
 Durée : 02h15 

1 août
 Durée : 02h15 

31 juillet
 Durée : 06h15 

30 juillet
 Durée : 07h00 

29 juillet
 Durée : 07h30 

28 juillet
 Durée : 06h30 

27 juillet
 Durée : 00h00 

26 juillet
 Durée : 05h45 

25 juillet
 Durée : 05h30 

24 juillet
 Durée : 06h15 

23 juillet
 Durée : 05h15 

22 juillet
 Durée : 06h30 

21 juillet
 Durée : 04h00 

20 juillet
 Durée : 04h45 

19 juillet
 Durée : 07h15 

18 juillet
 Durée : 05h00 

17 juillet
 Durée : 06h00 

16 juillet
 Durée : 06h15 

15 juillet
 Durée : 05h45 

14 juillet
 Durée : 06h00 

13 juillet
 Durée : 04h15 

12 juillet
 Durée : 05h45 
-------------------------------------------------1----1-1-2-1-1-----1---183122251---162-4-3--1---------------1-----1-----------------------1-----
-------------------------1----1-----------------1-2--2-11------------1--------11----------------------------------------------------------------
---------------6---------6----------------------------------------------2-----------------------------------------------------------------------
---------------------15------------------------------------21------3-----2-----2----------1--------3------------------------------------------2--
---------62-31130------2845---4112-------------7--------------------------------------------------------------------------------------------------------
-------------------------------------------------------------------------1----------------------------------------------------------------------
--------------------------------------------------------------------------5----23-----------7----------------------------------------------------
-----------------------------------------------------------------------------------------------------------------------------------1----------5-
-------------------------------------------------1--------3-------------213-1-15--1------2------------------------------------------------------
-------------------1----------------------------------------------------------------------------------------------------------------------------
-1---------51111512--766--2845255212-423-838124967134813714231-122417126--106---6-34--14--15-2--4525--------2----3--121--------1-6------21-41--11132-119141-4548-2243710
-------------------------------------------------------------------------1----------------------------------------------------------------------
-------------------------316---16-2811-----214148-90948148581251380448601834458-3831421-76-5310358253279122168369148482510--35--8424--45-11----------------------------------------------------
--------------------10--104077594430401501994-3762429--240--3488164861382206077407536153968423522708543560636562111070575301202-230724212---52-38--25-572--------------1------------------------------------------------------
-------------------------1-------------------1--------------------------------------------------------------------------------------------------
------------------------------------------------21-12---1----------------1-11-4----11928-4-----------------2----2--------1010500-40500100050010---10-500---500-1000---100
------------------------------------------------------2---2------------------36------1----------------------------------------------------------
-------------------6------11--930-120----10--21-12468398048-1212-45617----------------------------------------------------------------------------------------
---------------20---31200--30029026430125701235830-4035--2070--20014017019870220376701334013-40517322----5------------------------------------------------------------------------------------
-------------------28---------34--------114924435850501005005050500505000100010000-200200200-500-500180500-50010-5005015002005010001000500100-15001500150015001500150010001500100-5003500---------------------------------------------------
--------------------------------------------------------------------------------------2---------------------------------------------------------
------------------------------1-----------------------------------------------------------------------------------------------------------------
------------------------23----------------------------------------------------------------------------------------------------------------------
------------------------------------------------------------------------------------1-----------------------------------------------------------
-------------------------------------------------------------------------1----------------------------------------------------------------------
---------------22--91--42345-14-633-47165--317207588112672462961-51---------------------------------------------------------------------------------------------
-------57-25-666457932--2937459-325314694820930423497-65190--17728235097519087845235511312425942285713-911193-20-------------------------------------------------------------------------------------
-------10-----170-20---2010540-26031601604405020520205-20090--20---3090216--70670460130---5036023---165510--274-125184010625---------------------------------------------------------------------------
---------------500500--10001000--100020000-1000010000-100005000-2400021500-200002100024500-210005000060001550016000300015300820005400050005400010205001000385002000100002000-5900650030----1070-----50-200--500------------------------------------------------------------------

LPO Haute-Savoie
46 route de la Fruitière 74650 Chavanod
Tél. 04 50 27 17 74 haute-savoie@lpo.fr
Permanence les lundis, mardis, jeudis et vendredis de 9h à 12h
Plan
Visionature
VisioNature est un outil développé avec la collaboration du réseau LPO. Grâce aux technologies Internet, débutants, amateurs et professionnels naturalistes, peuvent partager en temps réel leur découverte et ainsi améliorer la connaissance et la protection de la faune

Biolovision Sàrl (Switzerland), 2003-2020