Visiteur Anonyme
HAUTE-SAVOIE
Accueil
 
Partenaires
 
La Faune d'Auvergne-Rhône-Alpes
Consulter les observations
  Les observations
    - 
Les 2 derniers jours
    - 
Les 5 derniers jours
    - 
Les 15 derniers jours
     Synthèse migration
       - 
Le Hucel
       - 
Défilé de l'Ecluse
     Données et analyses
       - 
Pinson du Nord 21-22
       - 
Geai des chênes 21-22
       - 
Grive musicienne 21-22
       - 
Grive mauvis 21-22
       - 
Tarin des aulnes 2021
       - 
Milan royal 2021
       - 
Vulcain 2021
       - 
Pic mar 19-21
       - 
Castor d'Eurasie 17-21
       - 
Souris grise (M.m. domesticus) 17-21
       - 
Sonneur à ventre jaune 11-21
       - 
Grenouille agile 18-21
       - 
Grenouille rousse 2021
       - 
Lézard des souches 11-21
       - 
Grande Aigrette 21-22
       - 
Gypaète barbu 20-21
       - 
Vautour moine 2021
       - 
Vautour fauve 2021
 - 
Les galeries
Information
  Aide
    - 
Espèces à publication limitée
    - 
Explication des symboles
    - 
les FAQs
  Statistiques
La faune de Haute-Savoie
 - 
Plan Vigilance Avifaune 74
 - 
Carte dynamique de la faune de Haute-Savoie
 - 
Carte dynamique des oiseaux nicheurs de Haute-Savoie
Vie associative
Conservation
Suivis et Expertises
Sensibilisation
Groupes faunistiques
Utilisation du site
Offres d'emploi
Les liens

La LPO est le reprsentant
pour la FRANCE de


Synthèse migration 1993 : Défilé de l'Ecluse - site suivi migration (Chevrier)

Date : du samedi 17 juillet 1993 au dimanche 14 novembre 1993

Nombre de jour de suivi : 98
Nombre d'heures de suivi : 716h00

Nombre d'oiseaux : 268635
Nombre de rapaces : 15632



 Cigognes et rapaces
 
Total 
  Grand Cormoran (Phalacrocorax carbo)6434 
  Grande Aigrette (Casmerodius albus)1 
  Héron cendré (Ardea cinerea)653 
  Héron pourpré (Ardea purpurea)1 
  Cigogne noire (Ciconia nigra)42 
  Cigogne blanche (Ciconia ciconia)68 
 Afficher phénologie  Bondrée apivore (Pernis apivorus)1402 
 Afficher phénologie  Milan noir (Milvus migrans)4423 
 Afficher phénologie  Milan royal (Milvus milvus)1379 
 Afficher phénologie  Circaète Jean-le-Blanc (Circaetus gallicus)1 
 Afficher phénologie  Busard des roseaux (Circus aeruginosus)922 
 Afficher phénologie  Busard Saint-Martin (Circus cyaneus)30 
 Afficher phénologie  Busard cendré (Circus pygargus)6 
 Afficher phénologie  Autour des palombes (Accipiter gentilis)8 
 Afficher phénologie  Épervier d'Europe (Accipiter nisus)717 
 Afficher phénologie  Buse variable (Buteo buteo)6179 
 Afficher phénologie  Aigle royal (Aquila chrysaetos)1 
 Afficher phénologie  Balbuzard pêcheur (Pandion haliaetus)80 
 Afficher phénologie  Faucon crécerelle (Falco tinnunculus)376 
 Afficher phénologie  Faucon kobez (Falco vespertinus)1 
 Afficher phénologie  Faucon émerillon (Falco columbarius)50 
 Afficher phénologie  Faucon hobereau (Falco subbuteo)57 

14 novembre
 Durée : 04h45 

13 novembre
 Durée : 07h00 

12 novembre
 Durée : 07h30 

11 novembre
 Durée : 05h15 

10 novembre
 Durée : 02h15 

9 novembre
 Durée : 04h00 

8 novembre
 Durée : 09h10 

7 novembre
 Durée : 09h30 

6 novembre
 Durée : 07h45 

5 novembre
 Durée : 08h00 

4 novembre
 Durée : 09h00 

3 novembre
 Durée : 09h15 

2 novembre
 Durée : 09h00 

1 novembre
 Durée : 09h30 

31 octobre
 Durée : 09h45 

30 octobre
 Durée : 09h45 

29 octobre
 Durée : 09h45 

28 octobre
 Durée : 09h45 

27 octobre
 Durée : 09h45 

26 octobre
 Durée : 09h45 

25 octobre
 Durée : 09h45 

24 octobre
 Durée : 08h30 

23 octobre
 Durée : 09h45 

22 octobre
 Durée : 09h15 

21 octobre
 Durée : 09h45 

20 octobre
 Durée : 09h15 

19 octobre
 Durée : 10h00 

18 octobre
 Durée : 09h15 

17 octobre
 Durée : 11h00 

16 octobre
 Durée : 10h30 

15 octobre
 Durée : 08h15 

14 octobre
 Durée : 09h00 

13 octobre
 Durée : 09h15 

12 octobre
 Durée : 09h30 

11 octobre
 Durée : 10h30 

10 octobre
 Durée : 11h50 

9 octobre
 Durée : 11h15 

8 octobre
 Durée : 00h00 

7 octobre
 Durée : 07h15 

6 octobre
 Durée : 00h00 

5 octobre
 Durée : 08h45 

4 octobre
 Durée : 10h00 

3 octobre
 Durée : 10h00 

2 octobre
 Durée : 06h30 

1 octobre
 Durée : 07h45 

30 septembre
 Durée : 07h30 

29 septembre
 Durée : 10h45 

28 septembre
 Durée : 00h00 

27 septembre
 Durée : 10h00 

26 septembre
 Durée : 10h00 

25 septembre
 Durée : 07h45 

24 septembre
 Durée : 00h00 

23 septembre
 Durée : 00h00 

22 septembre
 Durée : 11h00 

21 septembre
 Durée : 07h45 

20 septembre
 Durée : 11h15 

19 septembre
 Durée : 12h30 

18 septembre
 Durée : 11h15 

17 septembre
 Durée : 09h45 

16 septembre
 Durée : 08h15 

15 septembre
 Durée : 08h45 

14 septembre
 Durée : 00h00 

13 septembre
 Durée : 00h00 

12 septembre
 Durée : 08h30 

11 septembre
 Durée : 10h30 

10 septembre
 Durée : 05h00 

9 septembre
 Durée : 00h00 

8 septembre
 Durée : 00h00 

7 septembre
 Durée : 10h00 

6 septembre
 Durée : 11h15 

5 septembre
 Durée : 04h20 

4 septembre
 Durée : 08h00 

3 septembre
 Durée : 00h00 

2 septembre
 Durée : 05h30 

1 septembre
 Durée : 05h30 

31 août
 Durée : 00h00 

30 août
 Durée : 03h05 

29 août
 Durée : 09h30 

28 août
 Durée : 05h00 

27 août
 Durée : 00h00 

26 août
 Durée : 02h00 

25 août
 Durée : 00h00 

24 août
 Durée : 00h00 

23 août
 Durée : 00h00 

22 août
 Durée : 02h20 

21 août
 Durée : 04h00 

20 août
 Durée : 00h00 

19 août
 Durée : 03h30 

18 août
 Durée : 00h00 

17 août
 Durée : 00h00 

16 août
 Durée : 00h00 

15 août
 Durée : 04h00 

14 août
 Durée : 04h15 

13 août
 Durée : 00h00 

12 août
 Durée : 04h00 

11 août
 Durée : 00h00 

10 août
 Durée : 00h00 

9 août
 Durée : 03h00 

8 août
 Durée : 04h45 

7 août
 Durée : 04h15 

6 août
 Durée : 03h30 

5 août
 Durée : 04h45 

4 août
 Durée : 04h00 

3 août
 Durée : 00h00 

2 août
 Durée : 03h00 

1 août
 Durée : 05h45 

31 juillet
 Durée : 07h00 

30 juillet
 Durée : 04h45 

29 juillet
 Durée : 04h45 

28 juillet
 Durée : 04h30 

27 juillet
 Durée : 04h30 

26 juillet
 Durée : 04h30 

25 juillet
 Durée : 02h00 

24 juillet
 Durée : 06h30 

23 juillet
 Durée : 04h30 

22 juillet
 Durée : 04h30 

21 juillet
 Durée : 04h45 

20 juillet
 Durée : 04h30 

19 juillet
 Durée : 03h30 

18 juillet
 Durée : 05h00 

17 juillet
 Durée : 03h45 
25 33 15 29 9 76 15 74 11 7 19 54 50 96 425 169 156 735 241 374 100 56 162 101 147 27 166 62 449 123 366 43 35 117 427 414 160 - 171 - 19 66 27 33 - 6 71 - 23 10 - - - - 67 101 108 28 49 - 53 - - - - - - - - 18 - - - - - - - - - - - - - - - - - 12 - - - - - - - - - - - - - - - - - - - - - - - - - - - - 4 - - - -
- - - - - - - - - - - - - - - - - - - - - - - - - - - - 1 - - - - - - - - - - - - - - - - - - - - - - - - - - - - - - - - - - - - - - - - - - - - - - - - - - - - - - - - - - - - - - - - - - - - - - - - - - - - - - - - - - - - - - - - - - - -
- - - 3 - - - - - - - - - - - - - - - - - - 1 - - - - - 73 7 - - - - 3 37 22 - 3 - 2 - - 5 - 21 9 - 14 2 - - - - - - 199 137 10 - - - - 26 - - - - - 42 - - - - - - - - - - - - - - - - - - - - - 16 - - - - - - 14 - - - - - - - - - - - - - - - - - 7 - - - -
- - - - - - - - - - - - - - - - - - - - - - - - - - - 1 - - - - - - - - - - - - - - - - - - - - - - - - - - - - - - - - - - - - - - - - - - - - - - - - - - - - - - - - - - - - - - - - - - - - - - - - - - - - - - - - - - - - - - - - - - - - -
- - - - - - - - - - - - - - - - - 1 - - - - - 1 - - - - - 1 - - - - - - - - 1 - - - - - - 4 2 - - - 1 - - - 4 - 3 2 5 - - - - - 11 1 - - - 2 - - - - - - - 1 - - - - - - - - - - - - - - - - - - - - - - - - - - - 1 - - 1 - - - - - - - - - - - -
- - - - - - - - - - - - - - - - - - - - - - - - - - - - - - - - - - - - - - - - - - - - - - - - - - - - - - - - - 3 - - - - - 1 11 - - - - - - - - - - - - - 7 - - - - - - 44 - - - - - - - - - - - - - - - 2 - - - - - - - - - - - - - - - - - - -
- - - - - - - - - - - - - - - - - - - - - - - - - - - - - - - - - - - - - - - - - - - 1 - - 5 - 1 11 - - - - - 2 14 40 55 33 118 - - 114 185 81 - - 80 211 11 13 - 50 3 - 138 138 84 - 2 - - - 3 - - 8 - - - - - - 1 - - - - - - - - - - - - - - - - - - - - - - - - - -
- - - - - - - - - - - - - - - - - - - - - - - - - - - - - - - - - - - - - - - - 1 - - - - - 1 - - 1 - - - - 3 3 3 5 9 1 3 - - 5 8 3 - - 7 36 - 1 - - - - 5 2 2 - - - - - 1 - - 6 - - - 12 52 - 29 - - 15 304 333 65 157 149 - 21 735 689 167 257 113 70 51 46 653 62 32 63 35 42 124 41
1 - 1 4 4 9 3 - - - - 22 11 7 15 6 21 8 9 13 33 5 20 5 1 1 4 2 19 28 1 2 7 2 16 78 176 - 34 - 41 - 4 5 6 48 119 - 69 8 13 - - 24 22 173 111 55 86 2 3 - - 9 5 1 - - 1 1 - - - - - - 1 - - - - - - - - - - 1 - - - - - - - - - 1 1 - - - - - - 1 - - - - - - - - - - - - - - -
- - - - - - - - - - - - - - - - - - - - - - - - - - - - - - - - - - - - - - - - - - - - - - - - - - - - - - - - - - - - - - - - - - - - - - 1 - - - - - - - - - - - - - - - - - - - - - - - - - - - - - - - - - - - - - - - - - - - - - - - - - -
- - - - - - - - - - - - - - - - - - - 1 - - - - - - - - 2 - - - 3 - 4 2 18 - 7 - 5 7 2 30 3 3 17 - 26 58 32 - - 10 23 66 87 58 65 26 185 - - 34 54 6 - - 28 52 - 3 - 2 - - - 3 - - - - - - - - - - - - - - - - - - - - - - - - - - - - - - - - - - - - - - - - - - -
- - 2 - - - - - 1 - - - - - - - - - 1 1 1 - 3 - - - - 2 1 1 - - 1 - - - 4 - 2 - 1 - 1 1 - 1 - - 1 - 5 - - - - - - - - - - - - - - - - - - - - - - - - - - - - - - - - - - - - - - - - - - - - - - - - - - - - - - - - - - - - - - - - - - - - - -
- - - - - - - - - - - - - - - - - - - - - - - - - - - - - - - - - - - - - - - - - - - - - - 1 - - - - - - - - - - - 1 - 2 - - 2 - - - - - - - - - - - - - - - - - - - - - - - - - - - - - - - - - - - - - - - - - - - - - - - - - - - - - - - - -
- - - - - - - - - - - - 1 - - - - - - - - - 2 - 1 - - - - - - - - - - - - - 1 - - - 1 1 - - - - 1 - - - - - - - - - - - - - - - - - - - - - - - - - - - - - - - - - - - - - - - - - - - - - - - - - - - - - - - - - - - - - - - - - - - - - - - -
- 6 4 - 1 1 1 1 1 - 1 10 8 6 22 4 14 5 9 10 13 2 20 9 8 - 4 12 36 66 12 5 28 - 21 44 55 - 32 - 17 3 6 19 2 16 64 - 31 8 5 - - 2 8 13 22 18 4 - 6 - - - - 2 - - - - - - - - - - - - - - - - - - - - - - - - - - - - - - - - - - - - - - - - - - - - - - - - - - - - - - -
11 50 131 - 52 14 28 20 21 3 1 152 77 17 210 49 107 51 116 62 194 1 152 130 92 5 106 30 102 353 25 99 181 2 143 477 1127 - 157 - 133 12 5 91 2 178 377 - 131 79 86 - - 26 110 205 44 111 17 - 23 - - - 1 - - - - - - - - - - - - - - - - - - - - - - - - - - - - - - - - - - - - - - - - - - - - - - - - - - - - - - - -
- - - - - - - - - - - - - - - - - - - - - - - - - - - - - - - - - - - - - - - - - - - - - - - - - - 1 - - - - - - - - - - - - - - - - - - - - - - - - - - - - - - - - - - - - - - - - - - - - - - - - - - - - - - - - - - - - - - - - - - - - - -
- - - - - - - - - - - - - - - - - - - - - - - - 1 - - - 1 - 2 - - - - - 1 - - - - 1 - 3 - 1 3 - 1 8 6 - - - 2 3 5 5 2 - 17 - - 1 4 2 - - 5 1 1 2 - 1 - - - - - - - - - - - - - 1 - - - - - - - - - - - - - - - - - - - - - - - - - - - - - - - - -
- - - - - - - - - - - 2 - - - - - - 1 1 2 - 6 2 5 2 - 1 20 10 10 4 36 - 13 14 43 - 22 - 8 4 2 25 1 8 31 - 15 6 27 - - - 1 8 18 11 8 1 7 - - - - - - - - - - 1 - - - - - - - - - - - - - - - - - - - - - - - - - - - - - - - - - - - - - - - - - - - - - - - - -
- - - - - - - - - - - - - - - - - - - - - - - - - - - - - - - - - - - - - - - - - - - - - - - - - 1 - - - - - - - - - - - - - - - - - - - - - - - - - - - - - - - - - - - - - - - - - - - - - - - - - - - - - - - - - - - - - - - - - - - - - - -
- - 1 - - - - - - - - - - - - - - - - - 1 - 3 - 1 - 1 - 1 7 - 2 5 - 1 1 3 - 2 - 3 3 2 1 - 3 - - 1 4 2 - - - - - 2 - - - - - - - - - - - - - - - - - - - - - - - - - - - - - - - - - - - - - - - - - - - - - - - - - - - - - - - - - - - - - - - -
- - - - - - - - - - - - - - - - - - - - - - - - - - - - - 1 - - - - 1 3 5 - 1 - 5 1 - 4 - 3 3 - 2 4 1 - - 1 2 3 5 1 3 1 3 - - 1 1 2 - - - - - - - - - - - - - - - - - - - - - - - - - - - - - - - - - - - - - - - - - - - - - - - - - - - - - - -

 Autres espèces
 
Total 
  Pluvier argenté (Pluvialis squatarola)2 
  Vanneau huppé (Vanellus vanellus)28 
  Combattant varié (Philomachus pugnax)17 
  Courlis corlieu (Numenius phaeopus)4 
  Courlis cendré (Numenius arquata)1 
  Labbe parasite (Stercorarius parasiticus)1 
  Goéland brun (Larus fuscus)2 
  Goéland leucophée (Larus michahellis)1976 
  Sterne caspienne (Hydroprogne caspia)1 
  Pigeon ramier (Columba palumbus)220978 
  Martinet noir (Apus apus)2 
  Martinet à ventre blanc (Apus melba)9 
  Alouette lulu (Lullula arborea)728 
  Alouette des champs (Alauda arvensis)486 
  Grive mauvis (Turdus iliacus)6 
  Tichodrome échelette (Tichodroma muraria)1 
  Geai des chênes (Garrulus glandarius)70 
  Cassenoix moucheté (Nucifraga caryocatactes)4 
  Choucas des tours (Corvus monedula)585 
  Corbeau freux (Corvus frugilegus)20903 

14 novembre
 Durée : 04h45 

13 novembre
 Durée : 07h00 

12 novembre
 Durée : 07h30 

11 novembre
 Durée : 05h15 

10 novembre
 Durée : 02h15 

9 novembre
 Durée : 04h00 

8 novembre
 Durée : 09h10 

7 novembre
 Durée : 09h30 

6 novembre
 Durée : 07h45 

5 novembre
 Durée : 08h00 

4 novembre
 Durée : 09h00 

3 novembre
 Durée : 09h15 

2 novembre
 Durée : 09h00 

1 novembre
 Durée : 09h30 

31 octobre
 Durée : 09h45 

30 octobre
 Durée : 09h45 

29 octobre
 Durée : 09h45 

28 octobre
 Durée : 09h45 

27 octobre
 Durée : 09h45 

26 octobre
 Durée : 09h45 

25 octobre
 Durée : 09h45 

24 octobre
 Durée : 08h30 

23 octobre
 Durée : 09h45 

22 octobre
 Durée : 09h15 

21 octobre
 Durée : 09h45 

20 octobre
 Durée : 09h15 

19 octobre
 Durée : 10h00 

18 octobre
 Durée : 09h15 

17 octobre
 Durée : 11h00 

16 octobre
 Durée : 10h30 

15 octobre
 Durée : 08h15 

14 octobre
 Durée : 09h00 

13 octobre
 Durée : 09h15 

12 octobre
 Durée : 09h30 

11 octobre
 Durée : 10h30 

10 octobre
 Durée : 11h50 

9 octobre
 Durée : 11h15 

8 octobre
 Durée : 00h00 

7 octobre
 Durée : 07h15 

6 octobre
 Durée : 00h00 

5 octobre
 Durée : 08h45 

4 octobre
 Durée : 10h00 

3 octobre
 Durée : 10h00 

2 octobre
 Durée : 06h30 

1 octobre
 Durée : 07h45 

30 septembre
 Durée : 07h30 

29 septembre
 Durée : 10h45 

28 septembre
 Durée : 00h00 

27 septembre
 Durée : 10h00 

26 septembre
 Durée : 10h00 

25 septembre
 Durée : 07h45 

24 septembre
 Durée : 00h00 

23 septembre
 Durée : 00h00 

22 septembre
 Durée : 11h00 

21 septembre
 Durée : 07h45 

20 septembre
 Durée : 11h15 

19 septembre
 Durée : 12h30 

18 septembre
 Durée : 11h15 

17 septembre
 Durée : 09h45 

16 septembre
 Durée : 08h15 

15 septembre
 Durée : 08h45 

14 septembre
 Durée : 00h00 

13 septembre
 Durée : 00h00 

12 septembre
 Durée : 08h30 

11 septembre
 Durée : 10h30 

10 septembre
 Durée : 05h00 

9 septembre
 Durée : 00h00 

8 septembre
 Durée : 00h00 

7 septembre
 Durée : 10h00 

6 septembre
 Durée : 11h15 

5 septembre
 Durée : 04h20 

4 septembre
 Durée : 08h00 

3 septembre
 Durée : 00h00 

2 septembre
 Durée : 05h30 

1 septembre
 Durée : 05h30 

31 août
 Durée : 00h00 

30 août
 Durée : 03h05 

29 août
 Durée : 09h30 

28 août
 Durée : 05h00 

27 août
 Durée : 00h00 

26 août
 Durée : 02h00 

25 août
 Durée : 00h00 

24 août
 Durée : 00h00 

23 août
 Durée : 00h00 

22 août
 Durée : 02h20 

21 août
 Durée : 04h00 

20 août
 Durée : 00h00 

19 août
 Durée : 03h30 

18 août
 Durée : 00h00 

17 août
 Durée : 00h00 

16 août
 Durée : 00h00 

15 août
 Durée : 04h00 

14 août
 Durée : 04h15 

13 août
 Durée : 00h00 

12 août
 Durée : 04h00 

11 août
 Durée : 00h00 

10 août
 Durée : 00h00 

9 août
 Durée : 03h00 

8 août
 Durée : 04h45 

7 août
 Durée : 04h15 

6 août
 Durée : 03h30 

5 août
 Durée : 04h45 

4 août
 Durée : 04h00 

3 août
 Durée : 00h00 

2 août
 Durée : 03h00 

1 août
 Durée : 05h45 

31 juillet
 Durée : 07h00 

30 juillet
 Durée : 04h45 

29 juillet
 Durée : 04h45 

28 juillet
 Durée : 04h30 

27 juillet
 Durée : 04h30 

26 juillet
 Durée : 04h30 

25 juillet
 Durée : 02h00 

24 juillet
 Durée : 06h30 

23 juillet
 Durée : 04h30 

22 juillet
 Durée : 04h30 

21 juillet
 Durée : 04h45 

20 juillet
 Durée : 04h30 

19 juillet
 Durée : 03h30 

18 juillet
 Durée : 05h00 

17 juillet
 Durée : 03h45 
---------------------------------------------------------------------2---------------------------------------------------
---28---------------------------------------------------------------------------------------------------------------------
--------------------------------------------------17----------------------------------------------------------------------
-----------------------------------------------------------------------------------------------------------------------4-
------------------------------------------------------------1------------------------------------------------------------
-----------------------------------1-------------------------------------------------------------------------------------
-------------------------------1---------------------------1-------------------------------------------------------------
5453495381148223-549-76343417137731139214172297139471717-264512-7-36182732-30127-285-------44-33--213-------------1------------1------3--11-----1--2208442313---
------------------------------------------------------------------------------1------------------------------------------
--49--17----54012014103001106012501215240523759405530420026107340152405240485502994012101170171094106250390703290-13710-28204601304401062902840-3403030--103004001400602110--------------------------------------------------------------
-------------------------------------------------------1--------1--------------------------------------------------------
-------------------------------------------------------1--3----1-------------------------------------------------------4-
-364-11-------215-20--6-17--2211---9312113114--22-12-----31--34---------------------------------------------------------------------------
-----------------486-------------------------------------------------------------------------------------------------------
----------6--------------------------------------------------------------------------------------------------------------
----------------------------1--------------------------------------------------------------------------------------------
--------------------------------------------------------70----------------------------------------------------------------
----------------------------------------3--------1-----------------------------------------------------------------------
1413818316656110112625271045612211475234181326710411163015-10----1-42---------1----------------------------------------------------------------
831217234577020793778176245615821392398613848172430451955664679339263562191372604219210233178413408300-250----17-5137---------1----------------------------------------------------------------

LPO Haute-Savoie
46 route de la Fruitière 74650 Chavanod
Tél. 04 50 27 17 74 haute-savoie@lpo.fr
Permanence les lundis, mardis, jeudis et vendredis de 9h à 12h
Plan
Visionature
VisioNature est un outil développé avec la collaboration du réseau LPO. Grâce aux technologies Internet, débutants, amateurs et professionnels naturalistes, peuvent partager en temps réel leur découverte et ainsi améliorer la connaissance et la protection de la faune

Biolovision Sàrl (Switzerland), 2003-2021